Little Birdy

This Is A Love Song tab

Little Birdy

tools Ultimate Tabs

Start AutoScroll Font Size Down Font Size Up

Find us on Facebook

chords
tabs
bass
ukulele
keyboards
drums
flute
harmonica
guitar pro
video
Ultimate-Tabs

This Is A Love Song

Transcribed: 14 April 2004 
 
Notes: Most of the song revolves around Am G & F with an E chord 
thrown in during the chorus. The below should get you playing along 
to the song. Comments and corrections welcome. 
 
INTRO: 
E-|-------------------------------------------|- 
B-|-------------------------------------------|- 
G-|---------------------5~~~~----------7~~~~--|- 
D-|---------------------7~~~~----------5~~~~--|- 
A-|-------------------------------------------|- 
E-|-x\--5~~~~-----5~~~-----------5~~~---------|- 
 
E-|----------------------------------|- 
B-|----------------------------------|- 
G-|------------5------------5--------|- 
D-|------------7------------7---etc--|- 
A-|----------------------------------|- 
E-|-5--5-5-5-5----5-5-5-5-5----------|- 
 
VERSES: 
    Am   G  F     Am   G  F     Am   G  F     Am 
E-|--------------------------------------------------------------|- 
B-|--------------------------------------------------------------|- 
G-|-5-5--4--2-2---5-5--4--2-2---5-5--4--2-2---5---11-11-11-9--5--|- 
D-|-7-7--5--3-3---7-7--5--3-3---7-7--5--3-3---7---12-12-12-10-7--|- 
A-|-7-7--5--3-3---7-7--5--3-3---7-7--5--3-3---7---0--0--0--0--0--|- 
E-|-5-5--3--1-1---5-5--3--1-1---5-5--3--1-1---5------------------|- 
 
    Am   G  F     Am   G  F     Am   G  F     Am 
E-|----------------------------------------------|- 
B-|----------------------------------------------|- 
G-|-5-5--4--2-2---5-5--4--2-2---5-5--4--2-2---5--|- 
D-|-7-7--5--3-3---7-7--5--3-3---7-7--5--3-3---7--|- 
A-|-7-7--5--3-3---7-7--5--3-3---7-7--5--3-3---7--|- 
E-|-5-5--3--1-1---5-5--3--1-1---5-5--3--1-1---5--|- 
 
CHORUS CHORDS: 
    Am  G   F   E 
E-|-----------------|- 
B-|-----------------|- 
G-|-5---4---2---1---|- 
D-|-7---5---3---2---|- 
A-|-7---5---3---2---|- 
E-|-5---3---1---0---|- 
 
SOLO: 
E-|---------------------------------------------------------|- 
B-|-13--10-10~~--13-10-12-10-10~~--12-13-12\10-/15-10-10~~--|- 
G-|---------------------------------------------------------|- 
D-|---------------------------------------------------------|- 
A-|---------------------------------------------------------|- 
E-|---------------------------------------------------------|- 
 
E-|-10-8-----------------------------------------|- 
B-|------10-8-5~~--8-8~~--10-10~~--13-13~~--15\--|- 
G-|----------------------------------------------|- 
D-|----------------------------------------------|- 
A-|----------------------------------------------|- 
E-|----------------------------------------------|- 
 
E-|----------------------------------------------------------------------|- 
B-|-13--10-10~-\17~~-13-10-12-10-10~-\17~~--12-13-12\10-/15-10-10~-\17~~-|- 
G-|----------------------------------------------------------------------|- 
D-|----------------------------------------------------------------------|- 
A-|----------------------------------------------------------------------|- 
E-|----------------------------------------------------------------------|- 
 
E-|-10-8-----------------------------------------|- 
B-|------10-8-5~~--8-8~~--10-10~~--13-13~~--15\--|- 
G-|----------------------------------------------|- 
D-|----------------------------------------------|- 
A-|----------------------------------------------|- 
E-|----------------------------------------------|- 
 
Then play Am G followed by the verse & chorus again. 
 
 
less
plus
Add to Songbook Print Version How to play lesson Submit videolesson
Click the best TAGS for this song:
None of them
Contributor: 1478razz Correct

If you can not find the chords or tabs you want, look at our partner E-chords. If you are a premium member, you have total access to our video lessons.

If you find a wrong Bad To Me from Little Birdy, click the correct button above.

login/signup
my songbooks
my recent views
my submits