Little Comets

Dancing Song tab

Little Comets

tools Ultimate Tabs

Start AutoScroll Font Size Down Font Size Up

Find us on Facebook

chords
tabs
bass
ukulele keyboards
drums
flute
harmonica
guitar pro
video
Ultimate-Tabs

Dancing Song

Rhythm Guitar plays A and F#m for the intro

CHORUS
Lead Riff (1/16) (h = harmonic)
E ----------------|----------------|
A ----------------|-----------9-7--|
D -----------11-9-|--7-7777-7------|
G --9-9999-9------|----------------|
B ----------------|----------------|
E ----------------|----------------|

E ----------------|----------------|
A ----------------|----------------|
D -----------11-9-|h---h---h---h---|
G --9-9999-9------|----------------|
B ----------------|----------------|
E ----------------|----------------|

This one's for dancing
This one's for dancing

VERSE 1
E (12th)        D                            A
Hands up in the suburbs if you want to be alone
F#m             G#m      A
Need seconds to check it out
E (12th)    D            A
But your temperamental feelings
F#m             G#m          A
Can often leave you feeling like
E (12th)  D         A
You need a dancing song

WHOOP

VERSE 2
E (12th)              D                    A
You're just socially outrageous with your lack of self control
            F#m             G#m             A
So take your 37 digits and put them in her mobile phone, 
E (12th)                  D                    A
With all your quintessential skint potential leaking from your pores
            F#m             G#m             A
Let your tiptoes tell your finger that this is a DANCING SONG

CHORUS
Lead Riff (1/16) (h = harmonic)
E ----------------|----------------|
A ----------------|-----------9-7--|
D -----------11-9-|--7-7777-7------|
G --9-9999-9------|----------------|
B ----------------|----------------|
E ----------------|----------------|

E ----------------|----------------|
A ----------------|----------------|
D -----------11-9-|h---h---h---h---|
G --9-9999-9------|----------------|
B ----------------|----------------|
E ----------------|----------------|

This one's for dancing...
This one's for dancing... 
less
plus
Add to Songbook Print Version How to play lesson Submit videolesson
Click the best TAGS for this song:
None of them
Contributor: abeagirl Correct

If you can not find the chords or tabs you want, look at our partner E-chords. If you are a premium member, you have total access to our video lessons.

If you find a wrong Bad To Me from Little Comets, click the correct button above.

login/signup
my songbooks
my recent views
my submits