tools Ultimate Tabs

Start AutoScroll Font Size Down Font Size Up

Find us on Facebook

chords
tabs
bass
ukulele keyboards
drums
flute
harmonica
guitar pro
video
Ultimate-Tabs

Rock del Gato

G|-----------------| 
D|----------2-2-4-4| x 4 
A|--0-0-4-4--------| 
E|-----------------| 

G|----------2-2-4-4| 
D|--0-0-4-4--------| 
A|-----------------| x 2 
E|-----------------| 

G|-----------------| 
D|----------2-2-4-4| X 4 
A|--0-0-4-4--------|  
E|-----------------| 

G|-----------------| 
D|-----------------| 
A|----------2-2-4-4| X 2 
E|--0-0-4-4--------| 

G|------------------| 
D|----------2-2-4-4-| 
A|--0-0-4-4--------0|  
E|------------------| 

ASI TODA LA CANCION... SI LA ESCUCHAS MIENTRAS LA TOCAS, 
MEJOR PORQUE VAS A TENER MEJOR LOS TIEMPOS  
less
plus
Add to Songbook Print Version How to play lesson Submit videolesson
Click the best TAGS for this song:
None of them
Contributor: megsmarc Correct

If you can not find the chords or tabs you want, look at our partner E-chords. If you are a premium member, you have total access to our video lessons.

If you find a wrong Bad To Me from Los Ratones Paranoicos, click the correct button above.

login/signup
my songbooks
my recent views
my submits