Lubik

Abitibi Power tab

Lubik

chords
tabs
bass
ukulele
keyboards
drums
flute
harmonica
guitar pro
video
Ultimate-Tabs

Abitibi Power

Main Riff

e|----------------------------------------------------------------------|
B|----------------------------------------------------------------------|
G|----------------------------------------------------------------------|
D|---------3---------------------------------3-----------------5b7-5p3--|
A|---3-5-3---5p4p3-5---5-3-00----------3-5-3---5p4p3-5---3-5-3--------5-|
D|-0-----------------0-------3-003h5-0-----------------0----------------|


Bridge

e|---------------------------------------------------------|
B|---------------------------------------------------------|
G|12---10--------------------------------------------------|
D|12---10---12---10---6---5---0----------------------------|
A|10---08---12---10---6---5---0----------------------------|
D|----------12---10---6---5---0----------------------------|

e|---------------------------------------------------------|
B|---------------------------------------------------------|
G|---------------------------------------------------------|
D|3---5---0---10---6---5---3---0---------------------------|
A|3---5---0---10---6---5---3---0---------------------------|
D|3---5---0---10---6---5---3---0---------------------------|



************************************

| p  Pull-off
| b  Bend
| h  Hammer-on

************************************
less
plus
Add to Songbook Print Version How to play lesson Submit videolesson
Click the best TAGS for this song:
None of them
Contributor: Anonymous Correct

If you can not find the chords or tabs you want, look at our partner E-chords. If you are a premium member, you have total access to our video lessons.

If you find a wrong Bad To Me from Lubik, click the correct button above.

login/signup
my songbooks
my recent views
my submits