S Lupicínio Rodrigues

Hino Grêmio Foot-Ball Porto Alegrense tab

Lupicínio Rodrigues

chords
tabs
bass
ukulele
keyboards
drums
flute
harmonica
guitar pro
video
Ultimate-Tabs

Hino Grêmio Foot-Ball Porto Alegrense

 (versão solo) 
 
Refrão: 
|----------------------|--------------------| 
|----------------------|--------------------| 
|-12-9----------9------|-12-9----------9----| 
|------12-10-12---12---|------12-10-12---12-| 
|--------------------9-|--------------------| 
|----------------------|--------------------| 
 Até a pé...            Para o que... 
 
|----------------------------|----------------------| 
|---------------9----9-12-10-|---------10-8---6-----| 
|-9-10-12-11-12---12---------|-9-10-12------7---9-5-| 
|----------------------------|----------------------| 
|----------------------------|----------------------| 
|----------------------------|----------------------| 
 Mas o certo...               Com o Grêmio... 
 
 
Estrofe: 
|-------------------------|----------------------| 
|-------------------------|----------------------| 
|-------------------------|----------------------| 
|-10-10-10-10-12-14-12-10-|-10-10-10-10-12-14-10-| 
|-------------------------|----------------------| 
|-------------------------|----------------------| 
 Cinqüenta anos...         Tens imortal... 
 
|-------------------------|-------------------------------| 
|-------------------------|-------------------------------| 
|-------------------------|-------------------------------| 
|-10-10-10-10-12-14-12-10-|-10-10-10-10-12-14-15-14-12-10-| 
|-------------------------|-------------------------------| 
|-------------------------|-------------------------------| 
 Os feitos da tua...       Canta o Rio Grande...   
 
Após acabar o refrão pela última vez, ao final do hino, acrescente as notas:  
|-----| 
|-----| 
|---5-| 
|-5---| 
|-----| 
|-----| 
 
less
plus
Add to Songbook Print Version How to play lesson Submit videolesson
Click the best TAGS for this song:
None of them
Contributor: bubusupe Correct

If you can not find the chords or tabs you want, look at our partner E-chords. If you are a premium member, you have total access to our video lessons.

If you find a wrong Bad To Me from Lupicínio Rodrigues, click the correct button above.

login/signup
my songbooks
my recent views
my submits