Lynyrd Skynyrd

Simple man (middle part) tab

Lynyrd Skynyrd

tools Ultimate Tabs

Start AutoScroll Font Size Down Font Size Up

Find us on Facebook

chords
tabs
bass
ukulele
keyboards
drums
flute
harmonica
guitar pro
video
Ultimate-Tabs

Simple man (middle part)

 
 
this is only the middle 
part with distortion after hes done singing. 
 
 
play with distortion 
G|--------------------------------------| 
D|--------------------------------------| 
A|-0-2-3h5----h5-3----------------------| 
E|---------3-------5-3-5-3-5------------| 
 
play again the same way  
 
G|--------------------------------------| 
D|--------------------------------------| 
A|-0-2-3h5----h5-3----------------------| 
E|---------3-------5-3-5-3-5------------| 
 
to learn the rest by the CD and learn it your self  
 
 
 
less
plus
Add to Songbook Print Version How to play lesson Submit videolesson
Click the best TAGS for this song:
None of them
Contributor: punkNake Correct

If you can not find the chords or tabs you want, look at our partner E-chords. If you are a premium member, you have total access to our video lessons.

If you find a wrong Bad To Me from Lynyrd Skynyrd, click the correct button above.

login/signup
my songbooks
my recent views
my submits