Lynyrd Skynyrd

The Last Rebel (acoustic) chords

Lynyrd Skynyrd

tools Ultimate Tabs

Start AutoScroll Font Size Down Font Size Up

Find us on Facebook

chords
tabs
bass
ukulele keyboards
drums
flute
harmonica
guitar pro
video
Ultimate-Tabs

The Last Rebel (acoustic)

The Last Rebel (acoustic Version), Lynyrd Skynyrd 
 
 
 E|-0------------------------------------------------------------0-------0--------------- 
 B|--1-0h1--------------------------------------------------------1-0h1------------------ 
 G|-------2------------------------------------------------------------2----------------- 
 D|---------------------------------------------------------------------2---------------- 
 A|-------------------------------------------------------------------------------------- 
 E|-------------------------------------------------------------------------------------- 
 
 
 E|----------------------------------------------------------------------------------0--- 
 B|----1----1s3-1--3s1-1----1-------1--------------0h1---1s3-1--3s1-1----------------1--- 
 G|----2-2--2s4--2-4s2--2----0--0----0-0---0------2---2--2s4--2-4s2--2---------------0--- 
 D|---2---2-2s4----4s2-----2--2-2s4----4s2--2----2-----2-2s4----4s2---------------0--2--- 
 A|--0--------------------3-----3s5----5s3------0---------------------------------2--3--- 
 E|---------------------------------------------------------------------1------3--3------ 
  
 
 
 
Chords: 
     Am  Am(II)   C    C(II)   G     F 
|-----0-----0-----0------0-----3-----1----| 
|-----1-----3-----1------3-----3-----1----| 
|-----2-----4-----0------0-----0-----2----| 
|-----2-----4-----2------4-----0-----3----| 
|-----0-----0-----3------5-----2-----3----| 
|------------------------------3-----1----| 
Intro: Am, Am(II) ,Am, C, C(II), C, Am, Am(II),Am, F, G, C (also tabbed on the site) Verse 1: Am Am(II) Am There's a grey horse standin' still C C(II) C Am Am(II) Am F G C As a soldier climbs in the saddle for one last ride Am Am(II) Am As the rain pours off his hat C C(II) C Am Am(II) Am C C(II) C You can see the shadows of the past written in his eyes Am G C Now the cannons are silent Am G C His friends are all gone Am G C Gotta put it all behind him Am G F G If he ever wants to find highway home G Am Am(II) Am F G C He's the last rebel on the road Verse 2: Am Am(II) Am Just a boy with his old guitar C C(II) C Am Am(II) Am Keeps to himself but everybody takes him wrong F G C But he carries on Am Am(II) Am Got a dream that will never die C C(II) C Am Am(II) Am C C(II) C Can't change him, no use in stayin' where you don't belong Am G C Now he's rollin' down the highway Am G C Gone too far too fast Am G C No one will ever find him Am G C Am he'll never look back F 'Cause he's the last rebel G And he's all alone F He's the last rebel G His friends are all gone F He's the last rebel G Am The last rebel on the road Instrumental: Am, Am,(II) Am, C, C,(II) C (x3), F, G F G There'll never be another like him F G He's the last of a dying breed F G Ain't no use in tryin' to tame him G 'Cause he's the last rebel Am G C And he's all alone Am G C He's the last rebel Am G C His friends are all gone Am G C He's the last rebel Am G C Got To Carry On Am G C Am G He's The Last Rebel F G OH OH OH Am The Last Rebel On The Road Am G C He's the last rebel Am G C He's the last rebel Am G C He's the last rebel Am G C He's the last rebel Outro: Am, Am(II) ,Am, C, C(II), C, Am, Am(II),Am, F, G, C
less
plus
Add to Songbook Print Version How to play lesson Submit videolesson
Click the best TAGS for this song:
None of them
Contributor: knutslim Correct

If you can not find the chords or tabs you want, look at our partner E-chords. If you are a premium member, you have total access to our video lessons.

If you find a wrong Bad To Me from Lynyrd Skynyrd, click the correct button above.

login/signup
my songbooks
my recent views
my submits