tools Ultimate Tabs

Start AutoScroll Font Size Down Font Size Up

Find us on Facebook

chords
tabs
bass
ukulele keyboards
drums
flute
harmonica
guitar pro
video
Ultimate-Tabs

what's your name

Intro: 

C-C#-D   F-E-D   D-F#-G  A-C-Bb-B-A-G-A  


          A                       G 
Well It's eight O'clock Boise Idaho 

A                                             E 
I Found My limo driver "Mister take us to the show" 

A                                    G        D-G 
I done made some plans for later on tonight  

A                              E                     A 
I'll find a little queen and I know I can treat her right 



REFRAIN: 

   C-C#-D                F-E-D            D-F#-G 
What's your name ?     Little girl     What's your name 

  C-C#-D                 F-E-D            D-F#-G  
Shooting you straight   Little girl    Won't cha do the same 


Verse 2 Back at the hotel.... 
(Played the same progression as first verse) 
Refrain: Played 4 times 

Then solo 


E---------------------------------------------------------- 
B-------------------------------------17-17-----17-17------ 
G------------------14-16b-16b----16b--------16b------------ 
D----------14--16------------------------------------------ 
A-----/16-------------------------------------------------- 
E---------------------------------------------------------- 


E---------------------------------------------------------- 
B---------17-17-------------------------------------------- 
G----16b---------16brp14------14h16~-----------14-16-16p14- 
D-------------------------16-------------14h16------------- 
A---------------------------------------------------------- 
E---------------------------------------------------------- 

E---------------------------------------------------------- 
B---------------------------------------------------------- 
G--------14~-----------14-16-16p14-----14---16b------------ 
D----16----------14h16-------------16---------------------- 
A---------------------------------------------------------- 
E---------------------------------------------------------- 

E---------------------------------------------------------- 
B---------------------------------------------------------- 
G----------14----------------14---------------------------- 
D----14-16----16-------14-16-----16/14----14--------------- 
A--------------------------------------------16/14-12------ 
E---------------------------------------------------------- 

E---------------------------------------------------------- 
B---------------------------------------------------------- 
G---------------------------------------------------------- 
D---------------------------------------------------------- 
A----14-14p12------12~----------------12--14-14p12----12~-- 
E--------------14--------------12h14---------------14------ 

E---------------------------------------------------------- 
B---------------------------------------------------------- 
G-----------------------14~-----14-------14-14-------14-14- 
D----------14~-----/16-------16----14h16-------14h16------- 
A-----/16-------------------------------------------------- 
E---------------------------------------------------------- 


E---------------------------------------------------------- 
B---------------------------------------------------------- 
G----------14-14-------14-14-------14-14-------14-14------- 
D----14h16-------14h16-------14h16-------14h16------------- 
A---------------------------------------------------------- 
E---------------------------------------------------------- 

E---------------------------------------------------------- 
B---------------------------------------------------------- 
G----------14-16-16p14----14-------------14---------------- 
D----14h16-------------16----------14-16-----16~----------- 
A---------------------------------------------------------- 
E---------------------------------------------------------- 

Verse 3: Nine O'clock.... 
(Play the same progression as first verse) 
Refrain: Played 4 times 


 
less
plus
Add to Songbook Print Version How to play lesson Submit videolesson
Click the best TAGS for this song:
None of them
Contributor: lawlFerg Correct

If you can not find the chords or tabs you want, look at our partner E-chords. If you are a premium member, you have total access to our video lessons.

If you find a wrong Bad To Me from Lynyrd Skynyrd, click the correct button above.

login/signup
my songbooks
my recent views
my submits