S Manuel Maria Ponce

Molto Piu Lento tab

Manuel Maria Ponce

tools Ultimate Tabs

Start AutoScroll Font Size Down Font Size Up

Find us on Facebook

chords
tabs
bass
ukulele
keyboards
drums
flute
harmonica
guitar pro
video
Ultimate-Tabs

Molto Piu Lento

Molto piщ lento (Thиme variй et Finale) - 

Manuel Mario Ponce (1882-1948) 

see below for an easier way to play measure 2


                                IV.   III.   IV.   III.
      E(aug)         Aadd9 Asus  B           G#sus4 - G#m 
E||---4--------------0--------|--------------------------|
B||---------1--1--4--2--0-----|--7--------------4--------|
G||*-----1-----------4-----2--|--------3--3--6--4--3-----|
D||*--------------------------|-----4-----------6-----6--|
A||---------------0-----------|--6-----------------------|
E||---0-----------------------|--------------4-----------|


     F#7   Cdim  F#7add13       E           Eadd13F#7add1
  |---0-----------0-----------|--2----/6-----0-----------|
  |------------4-----------4--|-----5-----9-----1-/4-----|
  |---------2-----------3-----|-----------------------3--|
  |------4-----------4--------|--------------------------|
  |---4-----3-----4-----------|--------------------------|
  |---------------------------|--------------------------|

                                 II.
     D#m                        D#m          B           
  |---2-----------------------|--2-----------------------||
  |---------4-----4--------4--|-----4-----0--4-----------||
  |------3-----3-----1--3-----|--------3----------------*||
  |---1-----------------------|-------------------------*||
  |---------------------------|--2-----------2-----------||
  |---------------0-----2-----|--------------------------||


     Am(7M)         Am          C9/5-    C9,C7sus4add9,C9
  |---4--------5--3--------5--|--2--------3--1--------0--|
  |---------5-----------5-----|--------3-----------3-----|
  |------5-----------5--------|-----3-----------3--------|
  |---------------------------|--------------------------|
  |---0-----------0-----------|--3-----------3-----------|
  |---------------------------|--------------------------|

           I.
    F7M      F  B7               E7M   E7Madd13   
  |--0--------1-----9----------|------------------------||
  |--------1-----4-----10------|--4----2-----2----------||
  |-----2--------2-------------|--1----1-----1----------||
  |------------------------11--|--1----1----------------||
  |--------------2-------------|--2----2-----2----------||
  |--1-------------------------|--0----0-----0----------||



   Easy var. measure 2
                               
  ||--2-----------------------||
  ||--------------2--4--------||
  ||--------3--3-----4--3--1--||
  ||--1--4--------------------||
  ||--------------------------||
  ||--------------4-----------||

less
plus
Add to Songbook Print Version How to play lesson Submit videolesson
Click the best TAGS for this song:
None of them
Contributor: sunnchar Correct

If you can not find the chords or tabs you want, look at our partner E-chords. If you are a premium member, you have total access to our video lessons.

If you find a wrong Bad To Me from Manuel Maria Ponce, click the correct button above.

login/signup
my songbooks
my recent views
my submits