S Mariah Carey

Against All Odds tab

Mariah Carey

Album:Rainbow

Year:1999

tools Ultimate Tabs

Start AutoScroll Font Size Down Font Size Up

Find us on Facebook

chords
tabs
bass
ukulele keyboards
drums
flute
harmonica
guitar pro
video
Ultimate-Tabs

Against All Odds

Hi guys! Im Klarc, Im new here so its my first time to submit a tab here. just be 
patient, and im sure you'll get it:) Much better if you already familiarize or 
knew the song. I hope you will like it. ENJOY! 
----------------------------------------------------------------------------
"Against All Odds" by Mariah Carey  
No Capo
No Power or Bar chords
(you can strum it, using the chords also)

Intro: 
        Dm             G
E|----------1-----|---------------------|
B|-------3----3---|---3-----------------|
G|----2-------2---|---0-----------------|
D|--0-------------|---0-----------------|
A|----------------|---------------------|
E|----------------|---3-----------------|x2

Verse:
        F               Bm               Cadd9            D
E|----------------|---------------|---------------|-------2-------|
B|-------1--------|-------3-------|-------3-------|-----3---3---3-|
G|-----2---2---2--|-----2---2---2-|-----0---0---0-|---2-------2---|
D|---3-------3----|---0-------0---|---2-------2---|-0-------------|
A|-0--------------|-2-------------|-3-------------|---------------|
E|----------------|---------------|---------------|---------------|
  F                    Bm                     Cadd9           D       
How can I just let you walk away,Just let you leave without a trace

         F               Em              G                Am
E|--------0-------|---------------|----------------|--------------|
B|------1---1---1-|-------0-------|-------3--------|-------1------|
G|----2-------2---|-----0---0---0-|-----0---0---0--|-----2---2---2|
D|--3-------------|---2-------2---|---0-------0----|---2-------2--|
A|----------------|-2-------------|----------------|-0------------|
E|----------------|---------------|-3--------------|--------------|
      F                  Em            G              Am
When I stand here taking Every breath with you      oohhhh

         Dm                           G               
E|-------1--------|   |-------------------------------|
B|-----3---3---3--|   |--------3--------------3-------|
G|---2-------2----|   |------0---0---0------0---0---0-|
D|-0--------------|2x |----0-------0------0-------0---|
A|----------------|   |-----------------2-------------| 
E|----------------|   |-3-----------------------------|(continue up to choros)                   
           Dm                             G
You're the only one ,Who really knew me at all

verse : 
How can you just walk away from me 
When all I can do is watch you leave 
'Cause we've shared the laughter and the pain 
And even shared the tears 
You're the only one 
Who really knew me at all 

Choros: 
        C                    D
E|----------------|  |-------2-------|   
B|-------1--------|  |-----3---3---3-|   
G|-----0---0---0--|  |---2-------2---|   
D|---2-------2----|2x|-0-------------|2x 
A|-3--------------|  |---------------|   
E|----------------|  |---------------| 
                    C                            D
So take a look at me now ,Cause there's just an empty space 
  
      Am               F              Dm               G
E|---------------|-------0-------|-------1-------|----------------|
B|-------1-------|-----1---1---1-|-----3---3---3-|--------3-------|
G|-----2---2---2-|---2-------2---|---2-------2---|------0---0---0-|
D|---2-------2---|-3-------------|-0-------------|----0-------0---|
A|-0-------------|---------------|---------------|----------------|
E|---------------|---------------|---------------|-3--------------|
                Am            F                   Dm             G  
There's nothing left here to remind me ,Just the memory of your face (repeat choros once)


Verse:
I wish I could just make you turn around 
Turn around and see me cry 
There's so much I need to say to you 
So many reasons why 
You're the only one 
Who really knew me at all 

Choros:
So take a look at me now 
'Cause there's just an empty space 
There's nothing left here to remind me 
Just the memory of your face 
So Take a look at me now 
Cause there's just an empty space 
But to wait for you is 
All I can do 
And that's what I've got to face. 
Take a good look at me now 
'Cause l'll still be standing (standing here)
And you coming back to me is against all odds 
That's the chance I've got to take 
(chance I got to take, got to takeeee)

Yeahhhhh
Take A look at me now
-----------------------------------------------------------------------------
Thats All. Thanks :) DONT FORGET TO RATE! :)
#Kloyaks
less
plus
Add to Songbook Print Version How to play lesson Submit videolesson
Click the best TAGS for this song:
None of them
Contributor: patrWest Correct

If you can not find the chords or tabs you want, look at our partner E-chords. If you are a premium member, you have total access to our video lessons.

If you find a wrong Bad To Me from Mariah Carey, click the correct button above.

login/signup
my songbooks
my recent views
my submits