S Mariah Carey

Bye Bye tab

Mariah Carey

Album:E=MC²

Year:2008

tools Ultimate Tabs

Start AutoScroll Font Size Down Font Size Up

Find us on Facebook

chords
tabs
bass
ukulele keyboards
drums
flute
harmonica
guitar pro video
Ultimate-Tabs

Bye Bye

Piano 


     H        E  E   Q       H         H            H         E   E   Q      
E||--1--------6--8--10----|--8--------13--------|--------------------------| 
B||--3--------------------|--6------------------|--------------------15----| 
G||--3--------------------|--5------------------|---0--------15--17--------| 
D||-----------------------|--7------------------|--15----------------------| 
A||-----------------------|---------------------|--17----------------------| 
E||-----------------------|---------------------|--18----------------------| 


   H         H            H         E   E   Q        H         E   E   Q      
---8--------13--------|--------------------10----|--------------------10----| 
--10------------------|--11--------11--13--------|--11--------11--13--------| 
--10------------------|--12----------------------|--10----------------------| 
--12------------------|--13----------------------|--12----------------------| 
----------------------|--------------------------|--13----------------------| 
--10------------------|--11----------------------|--10----------------------| 


   H        E  E   Q       H        H           H        E  E   Q      
---6--------6--8--10----|--6--------8--------|--1--------6--8--10----| 
---8--------------------|--8-----------------|--3--------------------| 
---8--------------------|--8-----------------|--5--------------------| 
--10--------------------|--8-----------------|--8--------------------| 
------------------------|--8-----------------|-----------------------| 
---8--------------------|--------------------|-----------------------| 


  H         H            H         E   E   Q        H         H          
--8--------13--------|--------------------------|---8--------13--------| 
--6------------------|--------------------15----|--10------------------| 
--5------------------|---0--------15--17--------|--10------------------| 
--7------------------|--15----------------------|--12------------------| 
---------------------|--17----------------------|----------------------| 
---------------------|--18----------------------|--10------------------| 


   H         E   E   Q        H         E   E   Q        H        E  E   Q      
--------------------10----|--------------------10----|---6--------6--8--10----| 
--11--------11--13--------|--11--------11--13--------|---8--------------------| 
--12----------------------|--10----------------------|---8--------------------| 
--13----------------------|--12----------------------|--10--------------------| 
--------------------------|--13----------------------|------------------------| 
--11----------------------|--10----------------------|---8--------------------| 


  H        H           H        E  E   Q       H         H          
--6--------8--------|-----------6--8--10----|--8--------13--------| 
--8-----------------|--6--------------------|--6------------------| 
--8-----------------|--7--------------------|--5------------------| 
--8-----------------|--8--------------------|--7------------------| 
--8-----------------|-----------------------|---------------------| 
--------------------|-----------------------|---------------------| 


   H         E   E   Q        H         H            H         E   E   Q      
--------------------------|---8--------13--------|--------------------10----| 
--------------------15----|--10------------------|--11--------11--13--------| 
---0--------15--17--------|--10------------------|--12----------------------| 
--15----------------------|--12------------------|--13----------------------| 
--17----------------------|----------------------|--------------------------| 
--18----------------------|--10------------------|--11----------------------| 


   H         E   E   Q        H        E  E   Q       H        H          
--------------------10----|---6--------6--8--10----|--6--------8--------| 
--11--------11--13--------|---8--------------------|--8-----------------| 
--10----------------------|---8--------------------|--8-----------------| 
--12----------------------|--10--------------------|--8-----------------| 
--13----------------------|------------------------|--8-----------------| 
--10----------------------|---8--------------------|--------------------| 


  H        E  E   Q       H         H            H         E   E   Q      
-----------6--8--10----|--8--------13--------|--------------------------| 
--6--------------------|--6------------------|--------------------15----| 
--7--------------------|--5------------------|---0--------15--17--------| 
--8--------------------|--7------------------|--15----------------------| 
-----------------------|---------------------|--17----------------------| 
-----------------------|---------------------|--18----------------------| 


   H         H            H         E   E   Q        H         E   E   Q      
---8--------13--------|--------------------10----|--------------------10----| 
--10------------------|--11--------11--13--------|--11--------11--13--------| 
--10------------------|--12----------------------|--10----------------------| 
--12------------------|--13----------------------|--12----------------------| 
----------------------|--------------------------|--13----------------------| 
--10------------------|--11----------------------|--10----------------------| 


   H        E  E   Q       H        H           
---6--------6--8--10----|--6--------8--------|| 
---8--------------------|--8-----------------|| 
---8--------------------|--8-----------------|| 
--10--------------------|--8-----------------|| 
------------------------|--8-----------------|| 
---8--------------------|--------------------|| 




Duration Legend 
--------------- 
W - whole 
H - half 
Q - quarter 
E - 8th 
S - 16th 
T - 32nd 
X - 64th 
. - note dotted 
|-n-|  - n-tuplets 


Tablature Legend 
---------------- 
L - tied note 
x - dead note 
g - grace note 
(n) - ghost note 
> - accentuded note 
NH - natural harmonic 
AH - artificial harmonic 
TH - tapped harmonic 
SH - semi harmonic 
PH - pitch harmonic 
h - hammer on 
p - pull off 
b - bend 
br - bendRelease 
pb - preBend 
pbr - preBendRelease 
brb - bendReleaseBend 
\n/ - tremolo bar dip 
\n - tremolo bar dive 
-/n - tremolo bar Release up 
/n\ - tremolo bar inverted dip 
/n - tremolo bar return 
-\n - tremolo bar Release down 
S - shift slide 
s - legato slide 
/ -  slide into from below or out of upwards 
\ -  slide into from above or out of downwards 
~ - vibrato 
W - wide vibrato 
tr - trill 
TP - tremolo picking 
T - tapping 
S - slap 
P - pop 
< - fade in 
^ - brush up 
v - brush down  
less
plus
Add to Songbook Print Version How to play lesson Submit videolesson
Click the best TAGS for this song:
None of them
Contributor: jarrtama Correct

If you can not find the chords or tabs you want, look at our partner E-chords. If you are a premium member, you have total access to our video lessons.

If you find a wrong Bad To Me from Mariah Carey, click the correct button above.

login/signup
my songbooks
my recent views
my submits