S Mariah Carey

I Stay In Love tab

Mariah Carey

Album:E=MC²

Year:2008

tools Ultimate Tabs

Start AutoScroll Font Size Down Font Size Up

Find us on Facebook

chords
tabs
bass
ukulele keyboards
drums
flute
harmonica
guitar pro
video
Ultimate-Tabs

I Stay In Love

Tabbed by:lord autor
Email:[email protected]

Tuning:standard
  intro/verse/chorus
e|--------------------------------------------------|
B|-3h5-2h3------------------------------------------|
G|----------2--2--2---------------------------------|
D|-----------------4h5p4----------------------------|
A|----------------------7p5-------------------------|
E|--------------------------------------------------|

e|--------------------------------------------------|
B|-3h5-9-9--3---------------------------------------|
G|------------4------------------------5-3----------|
D|---------------------4--2---4--2--4-2-------------|
A|--------------------------------------------------|
E|--------------------------------------------------|
  repeat all of the above at the whole song except for the bridge part.only beats is 
at that part then follow up with this:
e|--------------------------------------------------|
B|-3h5-9-9--3---------------------------------------|
G|------------4------------------------5-3----------|
D|---------------------4--2---4--2--4-2-------------|
A|--------------------------------------------------|
E|--------------------------------------------------|
  just listen to the song to get the timing

  .,e-mail me for comments and suggestions.tnx.=),.
  .,M_C...._...22,.
| h = hammer-on
| p = pull-off
less
plus
Add to Songbook Print Version How to play lesson Submit videolesson
Click the best TAGS for this song:
None of them
Contributor: psykNikv Correct

If you can not find the chords or tabs you want, look at our partner E-chords. If you are a premium member, you have total access to our video lessons.

If you find a wrong Bad To Me from Mariah Carey, click the correct button above.

login/signup
my songbooks
my recent views
my submits