tools Ultimate Tabs

Start AutoScroll Font Size Down Font Size Up

Find us on Facebook

chords
tabs
bass
ukulele
keyboards
drums
flute
harmonica
guitar pro
video
Ultimate-Tabs

Dark Trip

Tremonti - Dark Trip
From the 'Cauterize' Album
Tuning: Drop B
tabbed by jjhand

This song has a nice overall sound with the dark sounding ringing 
acoustic, pentatonic/minor leads and heavy guitar that builds up 
the parts nicely. Hope you all like it! Please rate or comment. 


Intro, Main Riff - Acoustic with fingers

    play 3x, let notes ring           fourth bar 
C#|------------------------|      -------------------------|
G#|----------5--6--5-----5-|      ----------5--6--5--------|
E |------------------------|      -------------------5/7---|
B |----0-------------------|      ----0--------------------|
F#|------------------------|      -------------------------|
B |-0-----0-----0-----0----|      -0-----0-----0-----0-----|


During verse, play Main Riff 4x

   On 3rd time guitar 2 plays a harmony part:

     play 3x                         fourth bar
|------------------------|     ------------------------|
|---------8--10--8-----8-|     --------8--10--8--------|
|------------------------|     ------------------9-10--|
|------------------------|     ------------------------|
|------------------------|     ------------------------|
|------------------------|     ------------------------|




Prechorus - Distorted guitar starts
|-----------------------|-----------------------|
|-----------------------|-----------------------|
|-----------0-----0-----|-----------0-----0-----|
|---0---0---------------|--------0--------------|
|-----------------------|---1-------------------|
|-3---3-----------------|-1---1-----------------|

|-------------------------|--------------------------|
|-------------------------|--------------------------|
|-------0-----------0-----|-------0-----------0------|
|---3-----------3---------|--------------------------|
|-1---1-------0---0-------|---5------5----5-------5--|
|-------------------------|-5---5-------4---4--------|

|-----------------------|-----------------------|
|-----------------------|-----------------------|
|-----------0-----0-----|-----------0-----0-----|
|---0---0---------------|--------0--------------|
|-----------------------|---1-------------------|
|-3---3-----------------|-1---1-----------------|

|-------------------------|-------------------------|
|-------------------------|-------------------------|
|-------0-----------0-----|-------0-----------------|
|---3-----------3---------|-------------------------|
|-1---1-------0---0-------|---5------5--------------|
|-------------------------|-5---5-------4-----------|



Chorus - 

  played 3x, both guitars
|-------------------|-------------------------|
|-------------------|-------------------------|
|-------------------|-------------------------|
|-------------------|-------------------------|
|-3--------1--------|-8-----7-----5-----4-----|
|-3--------1--------|-8-----7-----5-----4-----|

  Chorus Ending:
|-------------------|-------------------------|
|-------------------|-------------------------|
|-------------------|-------------------------|
|-------------------|-------------------------|
|-3--------1--------|-(1)---------------------|
|-3--------1--------|-(1)---------------------|




Lead Part, before 2nd verse lyrics
|--------------------|----------------------|--------------------|
|-----8/10__________-|-(10)-----------------|--------------------|
|---7----------------|-----------12br-10-12-|-12~---------12b13r-|
|-7------------------|----------------------|--------------------|
|--------------------|----------------------|--------------------|
|--------------------|----------------------|--------------------|

|------------------------|-----
|------------------------|-----
|-10-------7--5----------|-----
|---------------7-6~-3---|-----
|----------------------3/|/5---
|------------------------|-----


Play Verse Again


Play Prechorus and Chorus Again



Bridge - 

     Acoustic, play 4x 
C#|------------------------|
G#|----------5--6--5-----5-|
E |------------------------|
B |----0-------------------|
F#|------------------------|
B |-0-----0-----0-----0----|
  |
  |  Guitar 2 - mute notes slightly           on 4th time
  |------------------------|-------            ----------------|
  |------------------------|-------            -------6h8------|
  |----------------5--7--5-|-7--7--            -----------5h7--|
  |------------------------|-------            ----------------|
  |------------------------|-------            ----------------|
  |------------------------|-------            ----------------|


  Acoustic
|-------5----------|-------5----------|-------5----------|------------------|
|---------6-----5--|---------6-----5--|---------6-----5--|-------5-6-5---5--|
|---7-------7------|---7-------7------|---7-------7------|---6--------------|
|-8---8------------|-8---8------------|-7---7------------|-7---7------------|
|------------------|------------------|------------------|------------------|
|------------------|------------------|------------------|------------------|
  guitar 2 plays something similar to above part


 

 Solo Rhythm Guitar Riff- strum chords shown, listen to song to get rhythm
 
   I am showing the chord changes but each chord is strummed 8 beats
|----------------|-----------------|-----------------|-----------------|
|----------------|-----------------|-----------------|-----------------|
|-7--------------|-7---------------|-----------------|-7---------------|
|-7--------------|-7---------------|-5---------------|-7---------------|
|-8--------------|-7---------------|-5---------------|-7---------------|
|-8--------------|-7---------------|-5---------------|-7---------------|

During solo, this riff is played 2x before Acoustic riff starts again




  Solo

|-17~~~----15-17-|-18---18---17p15-|-17~~~\----15-17-|-18---18___\-----|
|----------------|-----------------|-----------------|-----------------|
|----------------|-----------------|-----------------|---------------7-|
|----------------|-----------------|-----------------|-----------------|
|----------------|-----------------|-----------------|-----------------|
|----------------|-----------------|-----------------|-----------------|

|-6---5-----8---6---10-|-----------------------------|
|---------6---6--------|-10-9-8-------8-----8---8----|
|---7------------------|------------0--10b12-b12-b12-|
|----------------------|-----------------------------|
|----------------------|-----------------------------|
|----------------------|-----------------------------|

|------------------------|-------------10-12------13-15-|-20~~-20~~-20~~-----|
|-8---8---8---8---8--8---|-11-11-10--11-----13--13------|---------------18---|
|--b12-b12-b12-b12-10-10-|---------12---------14--------|-----------------17-|
|------------------------|------------------------------|--------------------|
|------------------------|------------------------------|--------------------|
|------------------------|------------------------------|--------------------|

|---------------|-22-------22-----20-----|---------------------------------|
|-18\3~~--------|---pb22r20---r20----r20-|-20b22-b22~~~--20b22r-18-20-18---|
|------------/x-|------------------------|------------------------------19-|
|---------------|------------------------|---------------------------------|
|---------------|------------------------|---------------------------------|
|---------------|------------------------|---------------------------------|

|----------------------------------|--------------------------------|
|-20-----20---20---20---20---20----|-20---20---20-------------12-15-|
|---22b24--b24--b24--b24--b24--b24-|---b24--b24--22\--14-12-14------|
|----------------------------------|--------------------------------|
|----------------------------------|--------------------------------|
|----------------------------------|--------------------------------|

|-10h15p10--10h13p10--10h15p10--10h13p10--10h15p10--10h13p10---|
|---------13--------13--------13--------13--------13--------13-|
|--------------------------------------------------------------|
|--------------------------------------------------------------|
|--------------------------------------------------------------|
|--------------------------------------------------------------|

|-10h12p10-----------------------------|--Acoustic starts again--|
|---------13-10-13-10------------------|-------------------------|
|--------------------------------------|-------------------------|
|--------------------14b15r-12-14-12---|-------------------------|
|-----------------------------------15-|-12~~~~~~~~~-------------|
|--------------------------------------|-------------------------|

|---------------------|-----------------|---------------|-------------|
|---------------------|-----------------|---------------|-------------|
|---------------------|-----------------|---------------|-------------|
|---------------------|-----------------|---------------|-------------|
|-(12~)-------12-10-8-|-10-8/10~~~~~----|-(10~)----7b8--|r7~~~--------|
|---------------------|-----------------|---------------|-------------|

|---------------------|-------------|-------------|---------------|
|---------------------|-------------|-------------|---------------|
|---------------------|-------------|-------------|---------------|
|---------------------|-------------|-------------|-----harm------|
|-(7~)-----------7br8-|-3/5~~~------|-(5~~)---/7--|-8---feedback--|
|---------------------|-------------|-------------|---------------|



Play Chorus to end song


************************************
KEY

| /   slide up
| \   slide down
| h   hammer-on
| p   pull-off
| ~   vibrato
| +   harmonic
| x   Mute note
| b   Bend
| pb  Pre-bend
| br  Bend release
| ()  Note is held from previous bar
| __  Hold note longer before playing next notes or slides

************************************
less
plus
Add to Songbook Print Version How to play lesson Submit videolesson
Click the best TAGS for this song:
None of them
Contributor: blinDDHH Correct

If you can not find the chords or tabs you want, look at our partner E-chords. If you are a premium member, you have total access to our video lessons.

If you find a wrong Bad To Me from Mark Tremonti, click the correct button above.

login/signup
my songbooks
my recent views
my submits