Marvin Gaye

Ain't No Mountain High Enough bass

Marvin Gaye

tools Ultimate Tabs

Start AutoScroll Font Size Down Font Size Up

Find us on Facebook

chords
tabs
bass
ukulele keyboards
drums
flute
harmonica
guitar pro video
Ultimate-Tabs

Ain't No Mountain High Enough

G|--2--211--10--0-4------0-12--21-1--10-0-4-----0-12-21-1-1-1-10-0-4-------|
D|----------------4---2-4-----------------4---2-4------------------4--2-2-2-|
A|------------------2-----------------------2--------0---------------2------|
E|--------------------------------------------------------------------------|

G|---0-12-21-1-1-1-10-0-4------------------------------------0-0--------------|
D|-4-------------------4--2--4-------------------------0-2-4--0-1-2-2-3-4-----|
A|-------0---------------2---------0--2----------0-1-2----------------------0-|
E|-----------------------------2-2--3--3-0-0-1-2--------------------------2---|

G|-----------0-0-----------2-3-4-----------------0---0-0-0-12-21-1-1-1-10-0--|
D|-----0-2-3--0--4-2-2-3-4---------0-1-2-2-2-3-4----0-0-0--------------------|
A|-1-2---------------------------2------2-2------------------0---------------|
E|---------------------------------------------------------------------------|

G|--4---------0-12--21-1-1-1-1-10-0-4---------0--0---------------------------|
D|-4--2-2-2-4----------------------4--2-4---0---0--2-2-3-4--------0-2-4------|
A|---2-------------0-----------------2----------------------0-1-2------------|
E|----------------------------------------2----------------2-----------------|

G|-0-------------------------0-0-----------------------------------0-0-0-----|
D|-----------------------0-2-----4-2-2-3-4------------01-2-2-2-3-4--0-0-0----|
A|--------------0-1-2-2----------------------0-1-2-2------2-2----------------|
E|--3-2-0-0-1-2----------------------------02----------------------------3-4-|

G|----------2-2-------------2-2-------------2-2------------------------------|
D|------2-2-----2-------2-2-----2-------2-2-----------------------4----------|
A|--0-0-----------0-0-0-----------0-0-0--------------------------4--4-4------|
E|----------------------------------------------0-3-3-3-3-3-1-2------2-------|

G|-----4--------0-----------2-----------2---2---2------3---3--3-----3--32-2-2|
D|----4-4------0--0-2-0---0------------2--2--2---2----3--3---3----3----------|
A|--2----2-0-------------------------0--------0---0-1-----------1-----1------|
E|-----------3----------3-----0-2-3------------------------------------------|

G|-2-2-21-1--5---------0-1--23--32-2-2-2-2-21-1--5----------------------------|
D|----------5----3---3--------------------------5---3-4-5---------------------|
A|--------------3--------------1-------------------3-----------3--------0---0-|
E|-----------------1--------------------------------------3--4---0--1-2---3---|

G|----------------------0-4-5-5-3-0--1-10-------------------------------0-1---|
D|----------------1-3-4-------------------3-4-5-----------1--3-3--3-3-3-------|
A|--2-3-3-1-0---2---------------------------------1-2-3-3-----3-3-------------|
E|------------4---------------------------------3-----------------------------|

G|--1-1-1--0-1-1-------0--0-5-----1-1-------0--0--5------1-1-------0---0-5------|
D|-1-1-1--3------2-3-3---0------1-----3-3-3---0--------1--1--3-3-3---0-------1--|
A|----------------------------3---------------------3----------------------3----|
E|------------------------------------------------------------------------------|
less
plus
Add to Songbook Print Version How to play lesson Submit videolesson
Click the best TAGS for this song:
None of them
Contributor: engeenge Correct

If you can not find the chords or tabs you want, look at our partner E-chords. If you are a premium member, you have total access to our video lessons.

If you find a wrong Bad To Me from Marvin Gaye, click the correct button above.

login/signup
my songbooks
my recent views
my submits