Matchbox Twenty

Unwell (Acustic) tab

Matchbox Twenty

tools Ultimate Tabs

Start AutoScroll Font Size Down Font Size Up

Find us on Facebook

chords
tabs
bass
ukulele
keyboards
drums
flute
harmonica
guitar pro
video
Ultimate-Tabs

Unwell (Acustic)

Name :Unwell (Versão Acustica) 
Artista : Matchbox 20 
Enviado por : Thiago Poiani 

Intro 

e|--------5-7-5-------------5-7-5-5----7p5-------| 
B|---5/7--5-7-5--7-5---5/7--5-7-5-5----7p5--7-5--| 
G|---4/6---------6-4---4/6------------------6-4--| 
D|-----------------------------------------------| 
A|-----------------------------------------------| 
E|-----------------------------------------------| 

e|--------5-7-5------5--------------------------------------| 
B|---5/7--5-7-5---5--5--7----7-------5--------------5-------| 
G|---4/6----------4-----6--6---6---4---4---1-1h2--4---4--2--| 
D|----------------------------------------------------------| 
A|----------------------------------------------------------| 
E|----------------------------------------------------------| 

e|--------5-7-5-------------5-7-5-5----7p5-------| 
B|---5/7--5-7-5--7-5---5/7--5-7-5-5----7p5--7-5--| 
G|---4/6---------6-4---4/6------------------6-4--| 
D|-----------------------------------------------| 
A|-----------------------------------------------| 
E|-----------------------------------------------| 

e|--------5---------5---------------------------------------| 
B|---5/7--5--7---5--5--7-----7-------5--------------5-------| 
G|---4/6-----6---4-----6---6---6---4---4---1-1h2--4---4--2--| 
D|----------------------------------------------------------| 
A|----------------------------------------------------------| 
E|----------------------------------------------------------| 

Verso: 

D9 E  
ALL DAY 

Asus2 F#m 
STARING AT THE CEILING MAKING 

D9 E F#m 
FRIENDS WITH SHADOWS ON MY WALL 

D9 E  
ALL NIGHT 

Asus2 F#m 
I`M HEARING VOICES TELLING ME 

D9 
THAT I SHOULD GET SOME SLEEP 

E 
BECAUSE TOMORROW MIGHT BE GOOD FOR SOMETHING 

(Pre Chorus) 

C#m D9 
HOLD ON  

Asus2 E 
I`M FEELING LIKE I`M HEADED FOR A  

C#m D9 
BREAKDOWN 

Asus2 E 
I DON`T KNOW WHY 

(Chorus) 

Asus2 D9  
I`M NOT CRAZY I`M JUST A LITTLE UNWELL 
I KNOW RIGHT NOW YOU CAN`T TELL 

F#m E 
BUT STAY AWHILE AND MAYBE THEN YOU`LL SEE 
A DIFFERENT SIDE OF ME 

Asus2 D9 
I`M NOT CRAZY I`M JUST A LITTLE IMPAIRED 
I KNOW RIGHT NOW YOU DON`T CARE 

F#m E 
BUT SOON ENOUGH YOU`RE GONNA THINK OF ME 
D9 E 
AND HOW I USED TO BE ME 

Asus2 F#m 
TALKING TO MYSELF IN PUBLIC 
D9 E F#m  
AND DODGING GLANCES ON THE TRAIN 
D9 E 
I KNOW 
Asus2 F#m 
I KNOW THEY`VE ALL BEEN TALKING `BOUT ME 
D9 
I CAN HEAR THEM WHISPER 
E 
AND IT MAKES ME THINK THERE MUST BE SOMETHING WRONG 
C#m D9 
WITH ME 
Asus2 E 
OUT OF ALL THE HOURS THINKING 
C#m D9 
SOMEHOW 
Asus2 E 
I`VE LOST MY MIND 

(Repita o Chorus) 

(Ponte) 
F#5 D5 
TALKING IN MY SLEEP 
F#5 D5 
PRETTY SOON THEY`LL COME TO GET ME 
F#5 E5 
THEY`LL BE TAKING ME AWAY 

(Repita o Chorus) 

Outro: 

Eb|---0----0----0----0-------| 
Bb|---0----0----0---------2--| 
Gb|---1----2----1---------2--| 
Db|---2----2----2---------2--| 
Ab|---2----2----2---------0--| 
Eb|---0----0----0------------| 

 
less
plus
Add to Songbook Print Version How to play lesson Submit videolesson
Click the best TAGS for this song:
None of them
Contributor: ToxiWaza Correct

If you can not find the chords or tabs you want, look at our partner E-chords. If you are a premium member, you have total access to our video lessons.

If you find a wrong Bad To Me from Matchbox Twenty, click the correct button above.

login/signup
my songbooks
my recent views
my submits