S Meghan Tonjes

Skinny Love By Bon Iver tab

Meghan Tonjes

tools Ultimate Tabs

Start AutoScroll Font Size Down Font Size Up

Find us on Facebook

chords
tabs
bass
ukulele
keyboards
drums
flute
harmonica
guitar pro
video
Ultimate-Tabs

Skinny Love By Bon Iver

-------------------------------------------------------------------------------
                             "Skinny Love" by Bon Iver - Meghan Tonjes cover
-------------------------------------------------------------------------------
Tabbed by:jainsley
E-mail:trainwrekj777
Chord shapes: 
Intro and Verses
Dm, F, Dm, F, Dm, F, C, Dm

Chorus
Dm, C, A#

Tuning:Standard:1st fret capo

    Intro                                                      
e|-----1--------------|-----1-----------|-----1--------------|-----1----------------|
B|-3-----3---3---3--3-|-1-----1-----1---|-3-----3---3---3--3-|-1-----1-----1-----1--|
G|---2-2---2--2---2---|---2-----2-----0-|---2-2---2--2---2---|---2-----2-----2-----2|
D|-0------------------|-3---------3-3---|-0------------------|-3---------3-----3----|
A|--------------------|-----------------|--------------------|----------------------|
E|--------------------|-----------------|--------------------|----------------------|

e|-----0h1------------|-------------------------------------------------------------|
B|-3------1-----1--1--|-1--1---1--1--1-3--------------------------------------------|
G|---2-2---2-2---2--0-|-----0---2--2------------------------------------------------|
D|-0--------------0---|---2--2---2--2--0--------------------------------------------|
A|--------------------|-3-----------------------------------------------------------|
E|--------------------|-------------------------------------------------------------|

    Verse (x2)
e|-----1---1---1---------1----1-----------1---1---1---------1----1-----------|
B|-3-----3---3---2-2-1-----1----------3-----3---3---2-2-1-----1--------------|
G|-2-2-2--2---2---3----2----2---------2-2-2--2---2---3----2----2-------------|
D|-0-----------------3----------------0-----------------3--------------------|
A|---------------------------------------------------------------------------|
E|---------------------------------------------------------------------------|

e|-----1---1---1---------1----1---1----------------------------1---1---------|
B|-3-----3---3---2-2-1-----1----1---1-1-----1---1----1-----3-----3-----------|
G|-2-2-2--2---2---3----2----2----2---2--0-----0---0----0-0---2---------------|
D|-0-----------------3--------------------2----2---2----2--0-----------------|
A|--------------------------------------3------------------------------------|
E|---------------------------------------------------------------------------|

   Bridge (x4)
e|-----1----1----1--------------------|
B|-1-----1----1----1--1-----1----1----|
G|---2-2--2-2--2-2--2---0-----0-------|
D|-3----------------------2----2------|
A|----------------------3----------1--|
E|------------------------------------|

    Chorus
e|-----1---1-3p1---------------------------1---1-3p1-----------------------|
B|-3---3---3-3-----3----1--1----1--1---3---3---3-3-----3----1--1----1--1---|
G|-2---------------2----2--2----2--2---2---------------2----2--2----2--2---|
D|-0-0---0-------0----3----3--3----3---0-0---0-------0----3----3--3----3---|
A|-------------------------------------------------------------------------|
E|-------------------------------------------------------------------------|

e|-----1---1-1--------------------------------------------1--1----1--------|
B|-3---3---3-3-----3----1--1----1--1----------------------3--1----3--------|
G|-2---------------2----2--2----2--2-----0--1----1--1-----2--2----2--------|
D|-0-0---0-------0----3----3--3----3-----2--2----2--2---0-------0----------|
A|-------------------------------------3-3--3--3-3--3----------------------|
E|-------------------------------------------------------------------------|

   Bridge 2 (x4)
e|-------------------------------------------------------------------------|
B|-1--1----1--1------------------------------------------------------------|
G|-2--2----2--2----0--0----3--3--------------------------------------------|
D|-3--3--3-3--3----2--2----3--3--------------------------------------------|
A|---------------0-3--3--0-1--1--------------------------------------------|
E|-------------------------------------------------------------------------|

    Out
e|-----1---1---1---------1----1-----------1---1---1---------1----1-----------|
B|-3-----3---3---2-2-1-----1----------3-----3---3---2-2-1-----1--------------|
G|-2-2-2--2---2---3----2----2---------2-2-2--2---2---3----2----2-------------|
D|-0-----------------3----------------0-----------------3--------------------|
A|---------------------------------------------------------------------------|
E|---------------------------------------------------------------------------|

************************************

| /   slide up
| \   slide down
| h   hammer-on
| p   pull-off
| ~   vibrato
| +   harmonic
| x   Mute note
| b   Bend
| pb  Pre-bend
| br  Bend release
| pbr Pre-bend release
| brb Bend release bend

************************************
less
plus
Add to Songbook Print Version How to play lesson Submit videolesson
Click the best TAGS for this song:
None of them
Contributor: mztechar Correct

If you can not find the chords or tabs you want, look at our partner E-chords. If you are a premium member, you have total access to our video lessons.

If you find a wrong Bad To Me from Meghan Tonjes, click the correct button above.

login/signup
my songbooks
my recent views
my submits