Metallica

The God That Failed tab

Metallica

Album:Metallica (Black Album)

Year:1991

tools Ultimate Tabs

Start AutoScroll Font Size Down Font Size Up

Find us on Facebook

chords
tabs
bass
ukulele
keyboards
drums
flute
harmonica
guitar pro video
Ultimate-Tabs

The God That Failed

 
written by Hetfield and Ulrich 
as performed on Metallica 
tab by Gabriel Marcondes 
 
Intro:Bass 
 
Guitar 
1) 
Gb--------4-4-------------- 
Db--5-5-2-----2--5-5-2~---- 
Ab------------------------- 
Eb------------------------- 
intro 
 
 
2) 
Gb-------------------------------------------------------------------------- 
Db------------9-9-------------9-----------7------------------------------9-- 
Ab--10-10-7-------7---10-10-7---7-10-10-7---7--10-10-7---5-5-7---10-10-7---7 
Eb----------0-------0----------------------------------0-------0------------ 
riff 
 
 
3) 
Db--4h5p4------------- 
Ab---------7-5-4-0---- 
Eb-----------------3-2 
pm.................... 
 
 
4a) 
Db-------------------------------------------------------------------------- 
Ab--3-2-2-2--3-2-2-2--3-2-2-5-2-3-2-2-2--3-2-2-2--3-2-2-2--3-2-2-5-2-3-2-3-3 
Eb--1-0-0-0--1-0-0-0--1-0-0-3-0-1-0-0-0--1-0-0-0--1-0-0-0--1-0-0-3-0-1-0-1-1 
   pm....    .....    .....   ....... 
Pride you took...                                                  ...from above 
 
4b) continued 
Db-------------------------------------------------------------------------- 
Ab--3-2-3-3--3-2-3-3--3-2-3-5-2-3-2-3-3--3-2-3-3--3-2-3-3--3-2-3-5-2-5-2-2-2 
Eb--1-0-1-1--1-0-1-1--1-0-1-3-0-1-0-1-1--1-0-1-1--1-0-1-1--1-0-1-3-0-3-0-0-0 
   pm....    .....    .....   .   ............    .....    .....   .   ..... 
It feeds... 
 
 
5a) 
Gb----------4--------------4------------------------------------------ 
Db---5-2--2---2--2--5-2--2---5--2--5------------------------------9--7 
Ab------------------------------2--5----------9--------------9----9--7 
Eb------------------------------0--3--10-7--7---7--7-10-7--7---7--7--5 
I see the faith... 
 
5b) continued 
Gb---------------------------------------------------------------------------------------------- 
Db----------9--------------9----9--7------------------------------------------------------------5 
Ab--10-7--7---7--7-10-7--7---7--9--5----------9--------------9-----------9------------9---------5 
Eb------------------------------7-----10-7--7---7--7-10-7--7---7-10-7--7---7--7-10--7---7-------3 
 
 
--------------------------- 
solo: 
 
||-------------------|-----------------------------| 
||-------------------|-----------------------------| 
||-------------------|-----------------------------| 
||-------------------|-----------------------------| 
||--------7~---------|--7~-------6~----------------| 
||-------------------|-----------------------------| 
 
 
                                                                     
-----------------------------------------|-------------------------| 
--------12-------------------------------|-------------------------| 
-----------14-12-11-12-11-------11h12p11/|--7----7---7-7/9----9----| 
--------------------------14-------------|---------9---------------| 
-----------------------------------------|-------------------------| 
-----------------------------------------|-------------------------| 
 
 
                                                             
--0-0-0-0-0-0-0-0-0-0--0--0--0--0--0--0--0--0--0-0-0-0-0-0-| 
--5-5-5/7-7-7/8-8-8/10-10-10/12-12-1210-10-108-8-87-7-7/| 
-----------------------------------------------------------| 
-----------------------------------------------------------| 
-----------------------------------------------------------| 
-----------------------------------------------------------| 
 
 
                                                       
--0-0-0-0-0-0-0-0-0-0-0-0-0-0-0-0-0-0-0-0-0-0--0--0--| 
--8-8-87-7-75-5-5-4-4-4/5-5-5/7-7-7/8-8-8/10-10-10/| 
-----------------------------------------------------| 
-----------------------------------------------------| 
-----------------------------------------------------| 
-----------------------------------------------------| 
 
 
                                                            
--12-12-12-12-12-12-12-12-1/-12-12-12-12-12-12-12-12-----| 
--12-12-12-12-12-12-12-12-1/-12-12-12-12-12-12-12-12-----| 
----------------------------------------------------------| 
--------------------------------------------------------7-| 
----------------------------------------------------------| 
----------------------------------------------------------| 
 
 
                                            
------------------------------------------| 
------------------------------------15~---| 
-----12-14-14r-12----14r12-14r12----14b---| 
--14--------------14-------------14-------| 
------------------------------------------| 
------------------------------------------| 
 
 
                                                
----------------------------------------------| 
----------------------------------------------| 
--9/11/12/14/16-1412/16-x-x-14-x-x-12-11-9--| 
----------------------------------------------| 
--7/9/-10/12/14-1210/14-x-x-12-x-x-10-9--7--| 
----------------------------------------------| 
 
 
              A.H                                             
--------------------------------------14h15p14----14-15-17-| 
-----------------14h15p14----14-15-17----------17----------| 
--9--7-6---6-7-6----------16-------------------------------| 
---------9-------------------------------------------------| 
-----------------------------------------------------------| 
-----------------------------------------------------------| 
 
 
                                                                  
--19--19-19-19-19-19---19-19-19-19--19-19-19-19-19--19-19-19-19-| 
----------------------------------------------------------------| 
----------------------------------------------------------------| 
----------------------------------------------------------------| 
----------------------------------------------------------------| 
----------------------------------------------------------------| 
 
 
                                                                               
--19-19p17p15-19--19p17p15-19---19p17p15----15h17-19p17p15h17p15----15h17-19-| 
-----------------------------------------17----------------------17----------| 
-----------------------------------------------------------------------------| 
-----------------------------------------------------------------------------| 
-----------------------------------------------------------------------------| 
-----------------------------------------------------------------------------| 
 
 
                                                          
--19p17p15-----19p17p15-----19p17p15-----19p17p15----15-| 
-----------17-----------17-----------17-----------17----| 
--------------------------------------------------------| 
--------------------------------------------------------| 
--------------------------------------------------------| 
--------------------------------------------------------| 
 
 
                                                                            
--19p17p1514-17p15-1412-15p14p1210-14p12p109-12p10p97-10p9p7---7-----| 
------------------------------------------------------------------8---8---| 
--------------------------------------------------------------------------| 
--------------------------------------------------------------------------| 
--------------------------------------------------------------------------| 
--------------------------------------------------------------------------| 
 
 
                                                   
------------------|------22b--22r-22r-22b--19-22-| 
------------------|------------------------------| 
------------------|------------------------------| 
------------------|------------------------------| 
------------------|------------------------------| 
------------------|------------------------------| 
 
 
                                                        
--19h22p19----19-----19----19----19----19----19----19-| 
-----------22----22b----22b---22b---22b---22b---22b---| 
------------------------------------------------------| 
------------------------------------------------------| 
------------------------------------------------------| 
------------------------------------------------------| 
 
 
                                                                               
   
--22p19----19-22p19-22p19----19-22p19-22p19----19-22p19----19-22p19-22p19-19---- 
--------22----------------22----------------22----------22-------------------22- 
-------------------------------------------------------------------------------- 
-------------------------------------------------------------------------------- 
-------------------------------------------------------------------------------- 
-------------------------------------------------------------------------------- 
 
 
                                                   
-------------------------------------------------| 
--22b-22p19--------------------------------------| 
------------21-19----19-21b--21b-21b-21b-21b-21b-| 
------------------21-----------------------------| 
-------------------------------------------------| 
-------------------------------------------------| 
 
 
                                   
--------------------------------|| 
--------------------------------|| 
--21b-21b-21b-21r---19----------|| 
-----------------------21~------|| 
--------------------------------|| 
--------------------------------|| 
 
 
_______________________________________________________ 
Contribuição: ([email protected]) 
 
less
plus
Add to Songbook Print Version How to play lesson Submit videolesson
Click the best TAGS for this song:
None of them
Contributor: darkari_ Correct

If you can not find the chords or tabs you want, look at our partner E-chords. If you are a premium member, you have total access to our video lessons.

If you find a wrong Bad To Me from Metallica, click the correct button above.

login/signup
my songbooks
my recent views
my submits