tools Ultimate Tabs

Start AutoScroll Font Size Down Font Size Up

Find us on Facebook

chords
tabs
bass
ukulele keyboards
drums
flute
harmonica
guitar pro video
Ultimate-Tabs

Sway

Sway Michael Buble Version 

Tuning:EADG

This is a version I came up with for my band. It's not an exact cover. Match it up 
against this video:
http://www.youtube.com/watch?v=ImQMTVc0RYs
 

Intro
 
G|-----------------------------------------------------------------------------|
D|-----------------------3--7-----3---------------------------7--5-------------|
A|-----0--------0--3--5--------5-----5-\-----0--------0--3--5-------8--7--5----|
E|--0-----3--0---------------------------0-----3--0----------------------------|

Verse

G|-----------------------------------------------------------------------------|
D|-----------------------3--7-----3---------------------5-----7--5-------------|
A|-----0--------0--3--5--------5-----5--7-\-4-----7---4-----5------8--7--5-----|
E|--0-----3--0--------------------------------5--------------------------------|

G|-----------------------------------------------------------------------------|
D|-----------------------3--------3---------------------5-----7--5-------------|
A|-----0--------0--3--5-----5-5-----5--7-\-4-----7---4-----5------8--7--5------|
E|--0-----3--0--------------------------------5--------------------------------|

Chorus

G|----------------------------------------3-2----------------------------------|
D|--------------------2-3--2-3---3--2-3-5-----2-----------------------3---3----|
A|--3--2-3---3--2-3-5----------3----------------0---0---0--2--4--1--1---1---0--|
E|---------3--------------------------------------3---3------------------------|


The rest of the song repeats these patterns with a few small variations.

For the key change near the end just move everything up a half step (1 fret).

less
plus
Add to Songbook Print Version How to play lesson Submit videolesson
Click the best TAGS for this song:
None of them
Contributor: zandDieg Correct

If you can not find the chords or tabs you want, look at our partner E-chords. If you are a premium member, you have total access to our video lessons.

If you find a wrong Bad To Me from Michael Bublé, click the correct button above.

login/signup
my songbooks
my recent views
my submits