Michael Jackson

Man In The Mirror bass

Michael Jackson

Album:Greatest Hits HIStory Vol 1

Year:2001

tools Ultimate Tabs

Start AutoScroll Font Size Down Font Size Up

Find us on Facebook

chords tabs
bass
ukulele keyboards
drums
flute
harmonica
guitar pro video
Ultimate-Tabs

Man In The Mirror

Riff 1
G|--7-9-7-------|
D|---------5-7--|
A|--------------|
E|--------------|

Riff 2
G|---4-5--7-7----|
D|-5----------0--|
A|---------------| 2X
E|---------------|

Riff 3
G|---4-5-6-7------------|
D|-5---------0-0-0-0-0--|
A|----------------------|
E|----------------------|

Riff 4
G|----------------5----------------|
D|-5-4-2-2-2-0--------------0-2-4--|2X
A|--------------3---3-----3--------|
E|---------------------------------|

Riff 5
G|-12-9-7-9----|
D|----------2--|
A|-------------|
E|-------------|

Riff6                                                                     
G|-------------|
D|-------------|
A|-0-2-3-1-----|                                                            
E|-------------|

Riff 7
G|-7-9-7-4---2----|
D|-------------0--|
A|----------------|
E|----------------|

Riff 8 
G|---------7----|
D|--------------|
A|---0-2-3---0--|
E|--------------|

Riff 9
G|---4-5-6-7---7--------|
D|-5---------0---0-0-0--|
A|----------------------|
E|----------------------|

Riff 10
G|--7-9-12--|
D|----------|
A|----------|
E|----------|

Riff 11
G|--7-9-7-12--|
D|------------|
A|------------|
E|------------|

Riff 12
G|---4-5-6-7---7--------|
D|-5---------0---0-0-0--|
A|----------------------|
E|----------------------|
less
plus
Add to Songbook Print Version How to play lesson Submit videolesson
Click the best TAGS for this song:
None of them
Contributor: britguit Correct

If you can not find the chords or tabs you want, look at our partner E-chords. If you are a premium member, you have total access to our video lessons.

If you find a wrong Bad To Me from Michael Jackson, click the correct button above.

login/signup
my songbooks
my recent views
my submits