Misc Cartoons

Steven Universe - Peace And Love On Planet Earth tab

Misc Cartoons

chords
tabs
bass
ukulele
keyboards
drums
flute
harmonica
guitar pro
video
Ultimate-Tabs

Steven Universe - Peace And Love On Planet Earth

-------------------------------------------------------------------------------
                             Peace & Love (On Planet Earth) - Steven Universe
-------------------------------------------------------------------------------

Provided lyrics are a rough guide.

Tuning: Standard

    Life...       love...         peace...        planet earth
e|8-----8---------7-----7---------7-----7---------5-----5---------|
B|8---------8-----8---------8-----5---------5-----5---------5-----|
G|9-----------9---9-----------9---5-----------9---5-----------5---|
D|----------------------------------------------------------------|
A|----------------------------------------------------------------|
E|----------------------------------------------------------------|

    Is there   anything...        Peace...        planet earth?
e|8-----8---------7-----7---------7-----7---------5-----5---------|
B|8---------8-----8---------8-----5---------5-----5---------5-----|
G|9-----------9---9-----------9---5-----------9---5-----------5---|
D|----------------------------------------------------------------|
A|----------------------------------------------------------------|
E|----------------------------------------------------------------|

    Come on...    Me,               the words...  key,
e|8-----8---------7---------------7-----7---------5---------------|
B|8---------8-----8---------------5---------5-----5---------------|
G|9-----------9---9---------------5-----------9---5---------------|
D|----------------------------------------------------------------|
A|----------------------------------------------------------------|
E|----------------------------------------------------------------|

    If...           if...           then...       me,
e|8-----8---------7-----7---------7-----7---------5---------------|
B|8---------8-----8---------8-----5---------5-----5---------------|
G|9-----------9---9-----------9---5-----------9---5---------------|
D|----------------------------------------------------------------|
A|----------------------------------------------------------------|
E|----------------------------------------------------------------|

    Life...       love...           Life...       love...  But using
e|8-----8---------7---------------7-----7---------5---------------|
B|8---------8-----8---------------5---------5-----5---------------|
G|9-----------9---9---------------5-----------9---5---------------|
D|----------------------------------------------------------------|
A|----------------------------------------------------------------|
E|----------------------------------------------------------------|

  mi fa mi mi fa  mi ti la    and peace...        planet earth,
e|8-----8---------7-----7---------7-----7---------5-----5---------|
B|8---------8-----8---------8-----5---------5-----5---------5-----|
G|9-----------9---9-----------9---5-----------9---5-----------5---|
D|----------------------------------------------------------------|
A|----------------------------------------------------------------|
E|----------------------------------------------------------------|
    Yes, yes, that's it...
e|8-----8---------7---------------7-----7---------5---------------|
B|8---------8-----8---------------5---------5-----5---------------|
G|9-----------9---9---------------5-----------9---5---------------|
D|----------------------------------------------------------------|
A|----------------------------------------------------------------|
E|----------------------------------------------------------------|

  You should write...                                   ...already
e|8-----8---------7-----7---------7-----7---------5-----5---------|
B|8---------8-----8---------8-----5---------5-----5---------5-----|
G|9-----------9---9-----------9---5-----------9---5-----------5---|
D|----------------------------------------------------------------|
A|----------------------------------------------------------------|
E|----------------------------------------------------------------|

    here,           I guess...      know...           something to 
e|8-----8---------7-----7---------7-----7---------5-----5---------|
B|8---------8-----8---------8-----5---------5-----5---------5-----|
G|9-----------9---9-----------9---5-----------5---5-----------5---|
D|----------------------------------------------------------------|
A|----------------------------------------------------------------|
E|----------------------------------------------------------------|

  fear,             We've...        go...                      in-
e|7-----7---------7-----7---------5-----5---------5-----5---------|
B|8---------8-----8---------8-----5---------5-----5---------5-----|
G|9-----------9---9-----------9---5-----------5---5-----------5---|
D|----------------------------------------------------------------|
A|----------------------------------------------------------------|
E|----------------------------------------------------------------|

  SANE           but I guess I am too.               Anybody would 
e|7-------------------------------7---------------5---------------|
B|8-------------------------------5---------------5---------------|
G|9-------------------------------5---------------5---------------|
D|----------------------------------------------------------------|
A|----------------------------------------------------------------|
E|----------------------------------------------------------------|

  be if they were stuck...   with you.
e|5---------------7---------------7-----7---------7-----7---------|
B|5---------------8---------------8---------8-----8---------8-----|
G|5---------------9---------------9-----------9---9-----------9---|
D|----------------------------------------------------------------|
A|----------------------------------------------------------------|
E|----------------------------------------------------------------|

  Life...         love...         Life...         love...
e|8-----8---------7---------------7-----7---------5---------------|
B|8---------8-----8---------------5---------5-----5---------------|
G|9-----------9---9---------------5-----------9---5---------------|
D|----------------------------------------------------------------|
A|----------------------------------------------------------------|
E|----------------------------------------------------------------|

    Life...       love...         peace...        planet earth
e|8-----8---------7-----7---------7-----7---------5-----5---------|
B|8---------8-----8---------8-----5---------5-----5---------5-----|
G|9-----------9---9-----------9---5-----------9---5-----------5---|
D|----------------------------------------------------------------|
A|----------------------------------------------------------------|
E|----------------------------------------------------------------|

    Is there   anything...          Is there   anything...
e|8-----8---------7-----7---------7-----7---------5-----5---------|
B|8---------8-----8---------8-----5---------5-----5---------5-----|
G|9-----------9---9-----------9---5-----------9---5-----------5---|
D|----------------------------------------------------------------|
A|----------------------------------------------------------------|
E|----------------------------------------------------------------|

    Is there   anything...        Peace...        planet earth?
e|8-----8---------7-----7---------7-----7---------5---------------|
B|8---------8-----8---------8-----5---------5-----5---------------|
G|9-----------9---9-----------9---5-----------9---5---------------|
D|----------------------------------------------------------------|
A|----------------------------------------------------------------|
E|----------------------------------------------------------------|
less
plus
Add to Songbook Print Version How to play lesson Submit videolesson
Click the best TAGS for this song:
None of them
Contributor: Simoincu Correct

If you can not find the chords or tabs you want, look at our partner E-chords. If you are a premium member, you have total access to our video lessons.

If you find a wrong Bad To Me from Misc Cartoons, click the correct button above.

login/signup
my songbooks
my recent views
my submits