Misc Computer Games

Persona 4 Golden - Shadow World bass

Misc Computer Games

chords
tabs
bass
ukulele keyboards
drums
flute
harmonica
guitar pro
video
Ultimate-Tabs

Persona 4 Golden - Shadow World

Persona 4 Golden: Shadow World bass tab

Tuning: Standard

Intro:

G|--------------------------------------------------------------|
D|-----------------0-2--2-0-----2--4-----------------2--2-------|
A|-0--4--5--4-2--4-----------4--------4-2--2---2--2-------------|
E|-------------------------------------------------------0-4-0--| 


Verse:

G|---------------------------------------------------------------|
D|----2--4--------0-2--2-0----2--4-------0-2--2------------------|
A|-4-------4-2--4----------4-------4-2--4------------------------|
E|---------------------------------------------0-----------------|
        "Truth is elusive, it's nowhere to be found..."

G|---------------------------------------------------------------|
D|----2--4--------0-2--2-0---------------2----2-0----------------|
A|-4-------4-2--4----------4--4-3--3-2--2------------------------|
E|---------------------------------------------------------------|
   "Down, it's not in any magazine, you can't see it on your TV screen"

G|---------------------------------------------------------------|
D|----2--4--------0-2--2-0----2--4-------0-2--2-0----------------|
A|-4-------4-2--4----------4-------4-2--4------------------------|
E|---------------------------------------------------------------|
  "Truth is evasive, though you might have the facts"

G|---------------------------------------------------------------|
D|----2--4--------0-2--2-0---------------------------------------|
A|-4-------4-2--4------------------------------------------------|
E|---------------------------------------------------------------|
   "Cracks wide open, you can search the world far and"

G|---------------------------------------------------------------|
D|----2--4--2---4-5-7---9-7-------------------------------------|
A|-4-------4-----------------------------------------------------|
E|---------------------------------------------------------------|
  "wide the only truth that you can ever find"


Pre-chorus:

G|---------------------------------------------------------------|
D|---------------------------------------------------------------|
A|-9-----9------------7-----7----------7-9----9-----------7-7----|
E|----------7-----7------------5----5-9----------7---------------|
    "Is in another, a soul that's got the same burning need..."


Chorus:

G|---------------------------------------------------------------|
D|---------------------------------------------------------------|
A|------------------------4-4-4-4--------------------------------|
E|-5-5-5-5-5-5-5-5-4-4-4-4-------2-2-2-2-2-2-2-2-0-0-0-0-5-5-5-5-|
   "One that defines your world, gives you truth and life"

G|---------------------------------------------------------------------|
D|-------------------------------------------------2-2-2-2-2-2-2-2-----|
A|-5-5-5-5-5-5-5-5-4-4-4-4-4-4-4-4-2-2-2-2-2-2-2-2---------------------|
E|----------------------------------------------------------------0----|
    "One that excels, special enough to guide your way through"
     the shadow world"


Riff 1:
G|-------------------------------------------------------------|
D|-----------------0-2--2-0-----2--4---------0-2--2------------|
A|-0--4--5--4-2--4-----------4--------4-2--4-------------------|
E|-------------------------------------------------0-----------| 

G|--------------------------------------------------------------------|
D|-----------------0-2--2-0-----2--4-----------------2-2---2----------|
A|-0--4--5--4-2--4-----------4--------4-2--2---2--2-------------------|
E|-------------------------------------------------------------0-4-0--| 


Verse 1x
Pre-chorus 1x
Chorus 2x (omit low E the first time)


Bridge: The bass enters in the middle of the spacey part
G|-11--13---14-----------------------------------------------------|
D|---------------14----11--11-12---11------------------------------|
A|-----------------------12-------------9--8--7--------------------|
E|------------------------------------9---------5------------------|

G|-----------------------------------------------------------------|
D|--------------------------------------------2-4---4-4-4---4-2-2--|
A|-5-5-5-5-5-5-5-5----5-5-5----4-5-4-4-4-4-4-4-4-------------------|
E|-----------------------------------------------------------------|

G|-----------------------------------------------------------------|
D|-----------------------------------------------------------------|
A|-5-5-5-5-5-5-5-5----5-5-5----5-5-5-4-4-4-4-4-4-4-----------0-0-4-|
E|------------------------------------------------2--2-2-2---------|

G|-----------------------------------------------------------------|
D|--------------------------------------------2-4---4-4-4-2-2-2-2--|
A|-5-5-5-5-5-5-5-5----5-5-5----5-5-5-4-4-4-4-4-4-------------------|
E|-----------------------------------------------------------------|

G|------------------------------------------------------------------|
D|-----------------------------------2-2-2-2-2-2-2------------------|
A|-2-2-2-2-2-2-2-2----2-2-2----2-2-2--------------------------------|
E|-------------------------------------------------0-0-0-0-0---0-0-0|

Chorus 2x (omit low E the first time)

Ending:
G|-----------------------------------------------------------------|
D|-----------------0-2--2-0-----2--4---------0-2---2---------------|
A|-0--4--5--4-2--4-----------4--------4-2--4-------------0---------|
E|--------------------------------------------------0--------------|
less
plus
Add to Songbook Print Version How to play lesson Submit videolesson
Click the best TAGS for this song:
None of them
Contributor: jlenjane Correct

If you can not find the chords or tabs you want, look at our partner E-chords. If you are a premium member, you have total access to our video lessons.

If you find a wrong Bad To Me from Misc Computer Games, click the correct button above.

login/signup
my songbooks
my recent views
my submits