Misc Computer Games

The Last Of Us Part Ii - Take On Me chords

Misc Computer Games

chords
tabs
bass
ukulele keyboards
drums
flute
harmonica
guitar pro
video
Ultimate-Tabs

The Last Of Us Part Ii - Take On Me

The Last Of Us Part II - Take On Me (acoustic cover of the a-ha song)
https://www.youtube.com/watch?v=NKeU1twQYX4

I added some picking patterns for those of you that ache to reproduce this yourself :D

Regular verse chords:
   C#m        F#         B          E          G#m
e|-4--------|-----2----|----------|----------|-4--------|
B|-5--5-----|----------|----4-----|----------|-4--------|
G|------6---|-3--------|-4----4---|--6-6-----|-4--------|
D|---6---6--|-4--------|-4-4---4--|-7-6------|-6--------|
A|-4---4----|---4------|-2---2----|----------|-6--------|
E|----------|-2--------|----------|----------|-4--------|

Chorus chords:
   B          F#         G#m        E          F#
e|-4--------|----------|----------|----------|----------|
B|-5--5-----|----2-----|----4-----|-5--------|-7--------|
G|------6---|-3----3---|-4----4---|-4--------|-6--------|
D|---6---6--|-4--------|-6--------|-6--------|-8--------|
A|-4---4----|---4------|---6---6--|-7--------|-9--------|
E|----------|-2---2----|-4---4----|----------|----------|


Verse
      C#m        F#
We're talking away
      B                 E
Well, I don't know what I'm to say
     C#m         F#
I'll say it anyway
    B             E
Today's another day to find you
C#m       F#
Shying away
         B                  E
I'll be coming for your love, okay


Chorus
B    F#  G#m   E F#
Take on  me
B    F#  G#m   E F#
Take me  on
B    F#  G#m   E F#
I'll be  gone
            B    F#  G#m  E
In a day or two...


Verse
   C#m           F#
So needless to say
    B                E
I'm odds and ends, but I'll be
   C#m        F#
Stumbling away
  B                   E
Slowly learning that life is okay
C#m         F#
Say after me
        B                E
It's no better to be safe than sorry


Chorus
B    F#  G#m   E F#
Take on  me
B    F#  G#m   E F#
Take me  on
B    F#  G#m   E F#
I'll be  gone
            B    F#  G#m  E
In a day or two...
            B    F#  G#m  E
In a day or two...
less
plus
Add to Songbook Print Version How to play lesson Submit videolesson
Click the best TAGS for this song:
None of them
Contributor: Anonymous Correct

If you can not find the chords or tabs you want, look at our partner E-chords. If you are a premium member, you have total access to our video lessons.

If you find a wrong Bad To Me from Misc Computer Games, click the correct button above.

login/signup
my songbooks
my recent views
my submits