Misc Traditional

Amhran Na Bhfiann bass

Misc Traditional

tools Ultimate Tabs

Start AutoScroll Font Size Down Font Size Up

Find us on Facebook

chords
tabs
bass
ukulele
keyboards
drums
flute
harmonica
guitar pro video
Ultimate-Tabs

Amhran Na Bhfiann

Amhran Na bhFiann- The Irish National Anthem.
Tabbed by thinlizzy.

First Line- Sinne Fianna Fáil,Atá fá gheall ag Éirinn
Figure 1

G-0-24-0---------------------|
D--------0~-0-22---2-020-----|
A----------------3-----------|
E----------------------------|

Second Line- Buidhean dár sluagh tar rúinn do ráinig chughainn
Figure 2

G------------2-4-2------------|
D-5-4-2~-2-4-------2-4~-------|
A-----------------------------|
E-----------------------------|

Third Line- Fámho’dh bhe’rh saor, Sean-t’r ár sinnsear feasta - Repeat Figure 1

Fourth Line- N’ fágfar fá'n t’orán ná fa'n tráil
Figure 3

G-----------------------------|
D-2-4-44-44-4-2-00------------|
A-----------------------------|
E-----------------------------|

Fifth Line- Anocht a theigeamh sa bhearna baoghail
Figure 4

G------------------------------|
D-5-3-5-3-53-2-4-2-------------|
A------------------------------|
E------------------------------|

Sixth Line- Le gean ar Gaedh’ chun báis nó saoghail,
Figure 5

G----------------------------|
D-5-4-2-4-2------------------|
A-----------5-3-0------------|
E----------------------------|

Seventh Line- Le gunna sgréach: Fá lamhach na piléar
Figure 6

G-0------0--0-2-4-5-7-9-------|
D--2---2----------------------|
A----3------------------------|
E-----------------------------|

Eight Line- Seo Libh canaidh amhrán na bhFiann
Figure 7

G-4-2-0-5-9-7~--55------------|
D-----------------------------|
A-----------------------------|
E-----------------------------|

Just put all of these pieces together.

Lyrics in English

A Soldier's Song

Soldiers are we,
whose lives are pledged to Ireland
Some have come from a land beyond the wave,
Sworn to be free,
no more our ancient sireland
Shall shelter the despot or the slave;
tonight we man the Bearna Baoghal
In Erin's cause.
come woe or weal;
'Mid cannon's roar and rifle's peal
We'll chant a soldier's song.
less
plus
Add to Songbook Print Version How to play lesson Submit videolesson
Click the best TAGS for this song:
None of them
Contributor: Andylost Correct

If you can not find the chords or tabs you want, look at our partner E-chords. If you are a premium member, you have total access to our video lessons.

If you find a wrong Bad To Me from Misc Traditional, click the correct button above.

login/signup
my songbooks
my recent views
my submits