Misc Traditional

Russian National Anthem bass

Misc Traditional

tools Ultimate Tabs

Start AutoScroll Font Size Down Font Size Up

Find us on Facebook

chords tabs
bass
ukulele keyboards
drums
flute
harmonica
guitar pro video
Ultimate-Tabs

Russian National Anthem

-------------------------------------------------------------------------------
			     RUSSIAN ANTHEM/SOVIET ANTHEM
-------------------------------------------------------------------------------

Tabbed By : ANDREI
e-mail: [email protected]

Tuning: STANDARD

G|---------------------------------------------------------------------------|
D|-----------------------------------------------------------------------5---|
A|-8---3--5-7-------5---3---1---3-------------------0-1-1---3---5---7-8------|
E|-------------5----------------------1--1----3--3---------------------------|

G|---------------------------------------------------------------------------|
D|-----7---5---3---5---2-2----3---2---0---2----------------------------------|
A|-3------------------------------------------0---5---3---1---3--------------|
E|---------------------------------------------------------------1-1---------|

G|---------------------------------------------------------------------------|            CHORUS
D|-3--2--0----------7--5--3--2--3--5----------0--2--3----2--0-----0-2-------|
A|----------3--------------------------3-3---------------------3------0-0----|
E|---------------------------------------------------------------------------|

G|--------------------------3----3--2--0-----0---2---------------------------|
D|-3---0-2-3---0-2-3---0-2-----------------3--------0-0----5--3-2--0--2-3----|
A|---------------------------------------------------------------------------|
E|---------------------------------------------------------------------------|

G|---------------------------------------------------------------------------|
D|-0-0-----0--3--2--0---------3--2--0----------------------------------------|
A|---------------------3--------------3--------------------------------------|
E|-------------------------1-------------------------------------------------|     
REPEAT 2 MORE TIMES


| /  slide up
| \  slide down
| h  hammer-on
| p  pull-off
| ~  vibrato
| +  harmonic
| x  Mute note
===============================================================================
less
plus
Add to Songbook Print Version How to play lesson Submit videolesson
Click the best TAGS for this song:
None of them
Contributor: Strerube Correct

If you can not find the chords or tabs you want, look at our partner E-chords. If you are a premium member, you have total access to our video lessons.

If you find a wrong Bad To Me from Misc Traditional, click the correct button above.

login/signup
my songbooks
my recent views
my submits