Misc Your Songs

Vanoss - Vanossgaming Riff tab

Misc Your Songs

tools Ultimate Tabs

Start AutoScroll Font Size Down Font Size Up

Find us on Facebook

chords
tabs
bass
ukulele
keyboards
drums
flute
harmonica
guitar pro
video
Ultimate-Tabs

Vanoss - Vanossgaming Riff

I'm not sure if this is the exact tabs because I did this on my acoustic guitar so they sound different
Tuning: Drop D
No Capo
video link: https://www.youtube.com/watch?v=YBaMbG81Gtk



e|---------------------0------------------------0------------------------0----------------|
B|----------------2-------2-----2---------2--------2----2----------2--------2-----2-------|
G|-------------2-----2-----------------2-----2------------------2-----2-------------------|
D|---------------------------0-----------------------0-------------------------2----------|
A|-----------------------------------------------------------0----------------------------|
E|----12/2--0-----------------------2-----------------------------------------------------|

e|----------------------------------------------------------------------------------------|
B|----------------------------------------------------------------------------------------|
G|----------6-----------9--6----------or---------------6-----------9--6-------------------|
D|-------7-----7-----7------------------------------7-----7-----7-------------------------|
A|----------------------------------------------------------------------------------------|
E|----0-----------6------------------------------7-----------6----------------------------|




************************************
| \   Slide down
************************************
less
plus
Add to Songbook Print Version How to play lesson Submit videolesson
Click the best TAGS for this song:
None of them
Contributor: Anonymous Correct

If you can not find the chords or tabs you want, look at our partner E-chords. If you are a premium member, you have total access to our video lessons.

If you find a wrong Bad To Me from Misc Your Songs, click the correct button above.

login/signup
my songbooks
my recent views
my submits