Muse

Citizen Erased tab

Muse

Album:Origin of Symmetry

Year:2001

tools Ultimate Tabs

Start AutoScroll Font Size Down Font Size Up

Find us on Facebook

chords
tabs
bass ukulele keyboards
drums
flute
harmonica
guitar pro video
Ultimate-Tabs

Citizen Erased

 
Standard Tuning 
 
Note: 
This tab is a 7 string guitar 
arranged for a 6 string guitar 
Drop The low E to an A, too.  
 
Intro: 
 
|---------------------------| 
|---------------------------| 
|---------------------------| 
|---------------------------| 
|-------7---7-7---7-7---77--| 
|--0-0----0-----0-----0-----| (x2) 
        *   * *   * *   ** 
 
|-------------------------------| 
|-------------------------------| 
|-------------------------------| 
|-------------------------------| 
|-------------------------------| 
|--0-0----4--0-44--0-4-4--0-44--| (x2) 
          *    **    * *    ** 
 
Last Time: 
 
|-----------------| 
|-----------------| 
|-----------------| 
|-----------------| 
|-----------------| 
|--0-0----4--0-4--|  
          *    * 
 
Verse: 
 
|----0----3--------------| 
|----1----0----1----0----| 
|----2----0----2----1----| 
|----2----0----3----2----| 
|----0----2----3----2----| 
|------------------------| 
 
Chorus: 
 
|----1----0----0----0----|----1----0----0----| 
|----1----1----0----1----|----1----1----0----| 
|----2----0----1----2----|----2----0----1----| 
|----3----2----2----2----|----3----2----2----| 
|----3----3----2----0----|----3----3----2----| 
|------------------------|-------------------| 
 
 
Quiet Section: 
 
|-----| 
|-----| 
|-----| 
|--7--| 
|-----| 
|-----| (Let Ring) 
 
|------------5--------8-----7-----6--------5-----| 
|------------------5---5------5-----5--------5---| 
|---------5----5--------5------5------5--------5-| 
|--5-/-7----------------------------------5------| 
|------------------------------------------------|- 
|------------------------------------------------| 
 
|--------------------------------------------------------------------------8-----8p7--| 
|--9-----8----7---7h8----8------7------6------7-----8----------9--------9---9---------| 
|---5-----5----5------------5------5------5------5-----5-----------9---9-------9------| 
|------5----5----5------3-----3-------3------3------3-----3---9------9----------------| 
|----------------------------------------------------------7--------------------------| 
|-------------------------------------------------------------------------------------| 
 
|----------5-------6-----7-----8------7---------| 
|------------5------5-----5------5-----5--------| 
|--------------5------5-----5------5-----5---7--| 
|--5-/-7----------------------------------------| 
|-----------------------------------------------| 
|-----------------------------------------------| 
 
|--7-----8----9-----10-----9---------8-------9-------10-------11-------11---------12--| 
|----8----8----8-------8-----8---------10------10-------10-------10------10------9----| 
|-----7----7-----7------7-----7--10-------10------10-------10-------10------10--9-----| 
|-------------------------------------------------------------------------------------| 
|-------------------------------------------------------------------------------------| 
|-------------------------------------------------------------------------------------| 
 
Quiet Chorus: 
 
|----------1---------------0---------------0-----------0-------0---| 
|------1-----1---1-----1-----1---1-----0-----0---0---1---1---1---1-| 
|----2---2-----2-----0---0-----0-----1---1-----1---2-------0-------| 
|--3---------------2---------------2-------------------------------| 
|------------------------------------------------------------------| 
|------------------------------------------------------------------| 
 
|--------1------------------0----------------0---------------0--------| 
|------1-----1---1------1-----1---1------0-----0---0-----0-----0---0--| 
|----2----2-----2-----0---0-----0------1---1-----1-----1---1-----1----| 
|--3---------------2----------------2---------------2-----------------| 
|---------------------------------------------------------------------| 
|---------------------------------------------------------------------| 
 
Last Time: 
 
|----------1---------------0----------------------------------------| 
|------1-----1---1-----1-----1---1------------------0-0-0-0-0-0-0-0-| 
|----2---2-----2-----0---0-----0----1-1-1-1-1-1-1-1-1-1-1-1-1-1-1-1-| 
|--3---------------2----------------2-2-2-2-2-2-2-2-2-2-2-2-2-2-2-2-| 
|-------------------------------------------------------------------| 
|-------------------------------------------------------------------| 
 
Solo: 
 
|----------------------------------------19-----------12b13--13b15--16b15-15--15b16--| 
|------------15b17b15--13--12b13b12--/19----12b13b12---------------------------------| 
|--14-16-17--------------------------------------------------------------------------| 
|------------------------------------------------------------------------------------| 
|------------------------------------------------------------------------------------| 
|------------------------------------------------------------------------------------| 
 
|------20------------------| 
|--/19-----15----12b13b12--| 
|--------------------------| 
|--------------------------| 
|--------------------------| 
|--------------------------| 
 
Ending: 
 
|-----------------------------0----------------------------------0----------| 
|---------------------------0-----------------------------------0-----------| 
|--2--2/4--0--4b5-4b5-4-2-1------2---2---2/4-0--4b5-4b5-4--2--1-----1h2-----| 
|----------------------------------2---3-------------------------------1h2--| 
|---------------------------------------------------------------------------| 
|---------------------------------------------------------------------------| 
 
|----0---0---0---0---0---0---0---0---0---0---0---0---0---0--| 
|---1-1-1-1-1-1-1-1-1-1-1-1-3-3-3-3-3-3-3-3-1-1-1-1-1-0-----| 
|--2---2---2---2---0---0---0---0---2---2---2---2---1--------| 
|-----------------------------------------------------------| 
|-----------------------------------------------------------| 
|-----------------------------------------------------------| 
 
|-0---0---0---0---0---0---0---0---0---0---0---0---0------0--| 
|--1-1-1-1-1-1-1-1-3-3-3-3-3-3-3-3-3-1-1-1-1-1-1-1-1----1---| 
|---2---2---2---2---0---0---0---0---0---0---0---0------0----| 
|-----------------------------------------------------2-----| 
|----------------------------------------------------3------| 
|-----------------------------------------------------------| 
 
Outro Chords: 
 
|----0----0----0----1----1----0----0----0----1----1----0----| 
|----1----1----1----1----1----1----0----1----1----1----1----| 
|----0----2----0----2----1----0----1----2----2----1----0----| 
|----2----2----2----3----3----2----2----2----3----3----2----| 
|----3----0----3----3----3----3----2----0----3----3----3----| 
|-----------------------------------------------------------| 
 
_______________________________________________________ 
Contribuição: Rafael Ortiz([email protected]) 
 
less
plus
Add to Songbook Print Version How to play lesson Submit videolesson
Click the best TAGS for this song:
None of them
Contributor: 00Alcool Correct

If you can not find the chords or tabs you want, look at our partner E-chords. If you are a premium member, you have total access to our video lessons.

If you find a wrong Bad To Me from Muse, click the correct button above.

login/signup
my songbooks
my recent views
my submits