Muse

New bor tab

Muse

tools Ultimate Tabs

Start AutoScroll Font Size Down Font Size Up

Find us on Facebook

chords
tabs
bass
ukulele
keyboards
drums
flute
harmonica
guitar pro
video
Ultimate-Tabs

New bor

 INTRO: (00.14)

  Em               Bsus4             Em                Bsus4    B
e-----7-------7---|-----7-------7---|-----7-------7---|-----7-------7---|
b---8---8---8---8-|---7---7---7---7-|---8---8---8---8-|---7---7---7---7-|
g-9-------9-------|-9-------9-------|-9-------9-------|-9-------8-------|
d-----------------|-----------------|-----------------|-----------------|
A-----------------|-----------------|-----------------|-----------------|
D-----------------|-----------------|-----------------|-----------------|

(For the first 2 notes of the arpeggio use downstrokes and use upstrokes
for the second 2. Also, it's easier just to barre the 7th fret)


VERSES 1-4: (00.28)

  Em               Bsus4             Em                Bsus4           
e-----7-------7---|-----7-------7---|-----7-------7---|-----7-------7---|
b---8---8---8---8-|---7---7---7---7-|---8---8---8---8-|---7---7---7---7-|
g-9-------9-------|-9-------9-------|-9-------9-------|-9-------9-------|
d-----------------|-----------------|-----------------|-----------------|
A-----------------|-----------------|-----------------|-----------------|
D-----------------|-----------------|-----------------|-----------------|
 
  Em               C                 G                   B
e-------------7---|-----8-------8---|-----10-------10---|-----7-------7---|
b---8---8---8---8-|---8---8---8---8-|---8----8---8----8-|---7---7---7---7-|
g-9---9---9-------|-9-------9-------|-7--------7--------|-8-------8-------|
d-----------------|-----------------|-------------------|-----------------|
A-----------------|-----------------|-------------------|-----------------|
D-----------------|-----------------|-------------------|-----------------|

(Again, use a barre on the 7th fret, moving up to the 8th fret at the
C chord and back down again for the G and B chords)


ROCK RIFF: (01.24)

e------------------|----------------------|---------------------|------------------|
b------------------|----------------------|---------------------|------------------|
g------------------|----------------------|---------------------|------------------|
d------------------|----------------------|---------------------|------------------|
A------------------|-----0-0-0-0-3-0-|3-4-55555--------|---------2-2-2-2|
D--2-2-2-2-5-2-|5-6-----------------|---------------0-22-|-33333---------|

  
e------------------------|----------------------|----------------------|----------------------|
b------------------------|----------------------|----------------------|----------------------|
g------------------------|----------------------|----------------------|----------------------|
d----2-2-2-2-2-2-2-2|-0-0-0-0-0-0-0-0-|-1-1-1-1-1-1-1-1|-1-1-1-1-1-1-1---|
A-3-3-3-3-3-3-3-3-3|-1-1-1-1-1-1-1-1-|-2-2-2-2-2-2-2-2|-2-2-2-2-2-2-2---|
D------------------------|----------------------|----------------------|---------------------|




Repita os dois duas vezes

   C                 Am                Em/B             B                                       Em5+
e----------------|------------------|-----------------|-----------------|--------|-------|---------|
b--1---1--x-x--|--1-1------x-x--|--0--0---0--0--|--4------------|--------|-------|---------|
g--0---0--x-x--|---2-2-----x-x--|--0--0---0--0--|--4------------|---12\-|---11\-|---10\-|
d--2---2--x-x--|---2-2----x-x--|--2--2---2--0--|--4-------------|---12\-|---11\-|---10\-|
A--3---3--x-x--|------------x-x--|--2--2---2--0--|--2------------|---10\-|---9\--|---8\---|
D----------------|-----------------|------------------|---------4--2--|--------|-------|---------|
No dó aperte de levinho uma terceira vez antes de abafar
BRIDGE RIFF: (02.00)

  E
e-------------------|-------------------|------------------|------------------|
b-------------------|-------------------|------------------|------------------|
g-------------------|-------------------|------------------|------------------|
d-------------------|-------------------|------------------|------------------|
A---2-0-2----2-0-2--|---2-0-2----2-0-2--|---2-0-2----2-0-2-|---2-0-2----2-0-2-|
D-2--------2--------|-2--------2--------|-2--------2-------|-2--------2-------|


VERSES 5-8: (02.08)

  Em                            B                         Em              
e-12-x-x-12-x-x-12-x-x-12-x-x-|-7-x-x-7-x-x-7-x-x-7-x-x-|-12-x-x-12-x-x-12-x-x-12-x-x-|
b-12-x-x-12-x-x-12-x-x-12-x-x-|-7-x-x-7-x-x-7-x-x-7-x-x-|-12-x-x-12-x-x-12-x-x-12-x-x-|
g-12-x-x-12-x-x-12-x-x-12-x-x-|-8-x-x-8-x-x-8-x-x-8-x-x-|-12-x-x-12-x-x-12-x-x-12-x-x-|
d-----------------------------|-------------------------|-----------------------------|
A-----------------------------|-------------------------|-----------------------------|
D-----------------------------|-------------------------|-----------------------------|

   B                        Em                            C
e-7-x-x-7-x-x-7-x-x-7-x-x-|-12-x-x-12-x-x-12-x-x-12-x-x-|-12-x-x-12-x-x-12-x-x-12-x-x-|
b-7-x-x-7-x-x-7-x-x-7-x-x-|-12-x-x-12-x-x-12-x-x-12-x-x-|-13-x-x-13-x-x-13-x-x-13-x-x-|
g-8-x-x-8-x-x-8-x-x-8-x-x-|-12-x-x-12-x-x-12-x-x-12-x-x-|-12-x-x-12-x-x-12-x-x-12-x-x-|
d-------------------------|-----------------------------|-----------------------------|
A-------------------------|-----------------------------|-----------------------------|
D-------------------------|-----------------------------|-----------------------------|

  G6                            B
e-12-x-x-12-x-x-12-x-x-12-x-x-|-7-x-x-7-x-x-7-x-x-7-x-x-|
b-12-x-x-12-x-x-12-x-x-12-x-x-|-7-x-x-7-x-x-7-x-x-7-x-x-|
g-12-x-x-12-x-x-12-x-x-12-x-x-|-8-x-x-8-x-x-8-x-x-8-x-x-|
d-----------------------------|-------------------------|
A-----------------------------|-------------------------|
D-----------------------------|-------------------------|


MIDDLE SECTION: (02.59)

 Em  G6 Am         D         G           C             A#º7       Em/B      B
e----0--0-------|----------------------|--------------------------|-0-0-0-0-0-----------|
b-0--0--1-------|----------------------|-5-5-5--5-x---2-2-2--2----|-0-0-0-0-0-4-4-4-4-x-|
g-0--0--2--2--7-|-11--11--7--12--11----|-5-5-5--5-x---0-0-0--0--0-|-0-0-0-0-0-4-4-4-4-x-|
d-2--5--2--2----|----------------------|-5-5-5--5-x---2-2-2--2--2-|-2-2-2-2-2-4-4-4-4-x-|
A-2--5--0--0--5-|--9---9--5--10---9--0-|-3-3-3--3-----1-1-1--1--1-|-2-2-2-2-2-2-2-2-2-X-|
D-2--5----------|--0---0---------------|--------------------------|---------------------|

O tempo fica pela metade aqui


PRE SOLO HARMONICS: (03.24)

e-------|---------------------------|----------------------------------------|
b-------|---------------------------|----------------------------------------|
g-------|---------------------------|----------------------------------------|
d-------|---------------------------|----------------------------------------|
A-------|--------------------(3)(3)-|(3)-------------(3)---------------------|
D-x--x--|-x--x--x--x--x--x--x-------|----(3)-(3)-(3)-----(3)-(3)-(2.5)-(2.5)-|

e----------------------------------------------------------------------------|
b----------------------------------------------------------------------------|
g----------------------------------------------------------------------------|
d----------------------------------------------------------------------------|
A----------------------------------------------------------------------------|
D--(2.5)---(2.5)---(2.5)---(2.5)---(2.5)---(2.5)---(2.5)-------(1.8)---(1.8)-|

e------------------------------------------------------------------------------------------------|
b------------------------------------------------------------------------------------------------|
g------------------------------------------------------------------------------------------------|
d------------------------------------------------------------------------------------------------|
A------------------------------------------------------------------------------------------------|
D(1.8)-(1.8)-(1.8)-(1.8)-(1.8)-(1.8)-(1.8)-(1.8)-(1.8)-(1.8)-(1.8)-(1.8)-(1.8)-(1.8)-(1.8)-(1.8)-|


SOLO: (03.31)
      
(w/whammy pedal(-8ve)

          Em                   B                    Em                 B
                            s                    s                  s                    s
e--(7)--|-19--15--12--15--11-|-19--14--11--14--10-|-19--15-12-15--11-|-19--14--11--14--10-|
b-------|-//--//--//--//--//-|-//--//--//--//--//-|-//--//-//-//--//-|-//--//--//--//--//-|
g-------|--------------------|--------------------|------------------|--------------------|
d-------|--------------------|--------------------|------------------|--------------------|
A-------|--------------------|--------------------|------------------|--------------------|
D-------|--------------------|--------------------|------------------|--------------------|

    Em                     C                     G                          B
                                                                         ~~~~~bd  bu
e-19-(19)(15)15-(15)--12--19-|-20--15------20--|--19--15-------------|------------------7-x-x-|
b-//--//-----//-------//--//-|-//--//--17--//--|--//--//--15--\--x-x-|-(16)----(15)(18)-7-x-x-|
g----------------------------|---------//------|---------------------|------------------7-x-x-|
d----------------------------|-----------------|---------------------|------------------------|
A----------------------------|-----------------|---------------------|------------------------|
D----------------------------|-----------------|---------------------|------------------------|



Lick it to the world, lick it to yourself
Stretch it like it's a buff squeeze
The love for what you hide, the bitterness inside
Is growing like the new born

When you've seen, seen
Too much, too young, young
So less is everyone

Hopeless times to roam, the distance to your home
Fades away to nowhere
How much are you worth, you can't come down to earth
You're swelling up, you're unstoppable

Cos you've seen, seen
Too much, too young, young
So less is everyone

Just want to spoil it, show me it's real
Wasting our last chance to come away
Just break the silence, cos I'm tears turn away
Away from you

Lick it to the wall, lick it to yourself
Stretch it like it's a buff squeeze
The love for what you hide, the bitterness inside
Is growing like the new born

When you've seen, seen
Too much, too young, young
So less is everyone

Just want to spoil it, show me it's real
Wasting our last chance to come away
Just break the silence, cos I'm tears turn away
Away from you


Like I said, not too sure of some of the words, but I think it's close enough, I mean 
it's so high pitched sometimes you could probably moan anything and it would sound ok.
Wish I could take all the credit for this tab, but most of it is based on one I found 
in a magazine, including the helpful tips on how to play each separate part, but it did 
less
plus
Add to Songbook Print Version How to play lesson Submit videolesson
Click the best TAGS for this song:
None of them
Contributor: tomtelle Correct

If you can not find the chords or tabs you want, look at our partner E-chords. If you are a premium member, you have total access to our video lessons.

If you find a wrong Bad To Me from Muse, click the correct button above.

login/signup
my songbooks
my recent views
my submits