Muse

Sunburn bass

Muse

Album:Showbiz

Year:1999

tools Ultimate Tabs

Start AutoScroll Font Size Down Font Size Up

Find us on Facebook

Ultimate-Tabs

Sunburn

----------------------------------------------------------------------------
                                  Muse  Sunburn
----------------------------------------------------------------------------

Tuning: Standard (EADG)


     H        H           H        H           W                 
G||--------------------|--------------------|-------------------|
D||--------------------|--------------------|-------------------|
A||--7--------0--------|--3--------0--------|--L----------------|
E||--------------------|--------------------|-------------------|


  W                   H        H           H        H         
-------------------|--------------------|--------------------|
-------------------|--------------------|--------------------|
-------------------|--7--------0--------|--3--------0--------|
-------------------|--------------------|--------------------|


  W                   H        Q    Q        E  E  S S S S S S S S S S S S  
-------------------|----------------------|--------------------------------|
-------------------|----------------------|--------7---5-6-7-5-6-7-5-7-----|
-------------------|----------------------|--0--0----0-----------------5-6-|
-------------------|----------------7/----|--------------------------------|


  E  E  E  S S S S S S S S S S    E  E  S S S S S S S S S S S S  
-------------------------------|--------------------------------|
-------------------------------|--------7---5-6-7-5-6-7-5-7-----|
--7--7--7----------------------|--0--0----0-----------------5-6-|
-----------0-1-2-0-1-2-0-2-0-2-|--------------------------------|


  E  E  E  S S S S S S S S S S    E  E  S S S S S S S S S S S S  
-------------------------------|--------------------------------|
-------------------------------|--------7---5-6-7-5-6-7-5-7-----|
--7--7--7----------------------|--0--0----0-----------------5-6-|
-----------0-1-2-0-1-2-0-2-0-2-|--------------------------------|


  E  E  E  S S S S S S S S S S    E  E  S S S S S S S S S S S S  
-------------------------------|--------------------------------|
-------------------------------|--------7---5-6-7-5-6-7-5-7-----|
--7--7--7----------------------|--0--0----0-----------------5-6-|
-----------0-1-2-0-1-2-0-2-0-2-|--------------------------------|


  E  E  E  S S S S S S S S S S    H        H           W                 
-------------------------------|--------------------|-------------------|
-------------------------------|--2-----------------|-------------------|
--7--7--7----------------------|--------------------|-------------------|
-----------0-1-2-0-1-2-0-2-0-2-|--------------------|-------------------|


  W                   W                   H        H         
-------------------|-------------------|--------------------|
-------------------|-------------------|--------------------|
-------------------|-------------------|--7--------0--------|
-------------------|-------------------|--------------------|


  H        H           W                   W                 
--------------------|-------------------|-------------------|
--------------------|-------------------|-------------------|
--3--------0--------|-------------------|-------------------|
--------------------|-------------------|-------------------|


  H        H           H        H           W                 
--------------------|--------------------|-------------------|
--------------------|--------------------|-------------------|
--7--------0--------|--3--------0--------|-------------------|
--------------------|--------------------|-------------------|


  H        Q    Q        E  E  S S S S S S S S S S S S  
----------------------|--------------------------------|
----------------------|--------7---5-6-7-5-6-7-5-7-----|
----------------------|--0--0----0-----------------5-6-|
----------------7/----|--------------------------------|


  E  E  E  S S S S S S S S S S    E  E  S S S S S S S S S S S S  
-------------------------------|--------------------------------|
-------------------------------|--------7---5-6-7-5-6-7-5-7-----|
--7--7--7----------------------|--0--0----0-----------------5-6-|
-----------0-1-2-0-1-2-0-2-0-2-|--------------------------------|


  E  E  E  S S S S S S S S S S    E  E  S S S S S S S S S S S S  
-------------------------------|--------------------------------|
-------------------------------|--------7---5-6-7-5-6-7-5-7-----|
--7--7--7----------------------|--0--0----0-----------------5-6-|
-----------0-1-2-0-1-2-0-2-0-2-|--------------------------------|


  E  E  E  S S S S S S S S S S    E  E  S S S S S S S S S S S S  
-------------------------------|--------------------------------|
-------------------------------|--------7---5-6-7-5-6-7-5-7-----|
--7--7--7----------------------|--0--0----0-----------------5-6-|
-----------0-1-2-0-1-2-0-2-0-2-|--------------------------------|


  E  E  E  S S S S S S S S S S    W                   W                 
-------------------------------|-------------------|-------------------|
-------------------------------|-------------------|-------------------|
--7--7--7----------------------|-------------------|-------------------|
-----------0-1-2-0-1-2-0-2-0-2-|-------------------|-------------------|


  W                   W                   E  E  S S S S S S S S S S S S  
-------------------|-------------------|--------------------------------|
-------------------|-------------------|--------7---5-6-7-5-6-7-5-7-----|
-------------------|-------------------|--0--0----0-----------------5-6-|
-------------------|-------------------|--------------------------------|


  E  E  E  S S S S S S S S S S    E  E  S S S S S S S S S S S S  
-------------------------------|--------------------------------|
-------------------------------|--------7---5-6-7-5-6-7-5-7-----|
--7--7--7----------------------|--0--0----0-----------------5-6-|
-----------0-1-2-0-1-2-0-2-0-2-|--------------------------------|


  E  E  E  S S S S S S S S S S    E  E  S S S S S S S S S S S S  
-------------------------------|--------------------------------|
-------------------------------|--------7---5-6-7-5-6-7-5-7-----|
--7--7--7----------------------|--0--0----0-----------------5-6-|
-----------0-1-2-0-1-2-0-2-0-2-|--------------------------------|


  E  E  E  S S S S S S S S S S    E  E  S S S S S S S S S S S S  
-------------------------------|--------------------------------|
-------------------------------|--------7---5-6-7-5-6-7-5-7-----|
--7--7--7----------------------|--0--0----0-----------------5-6-|
-----------0-1-2-0-1-2-0-2-0-2-|--------------------------------|


  E  E  E  S S S S S S S S S S    E  E  S S S S S S S S S S S S  
-------------------------------|--------------------------------|
-------------------------------|--------7---5-6-7-5-6-7-5-7-----|
--7--7--7----------------------|--0--0----0-----------------5-6-|
-----------0-1-2-0-1-2-0-2-0-2-|--------------------------------|


  E  E  E  S S S S S S S S S S    E  E  S S S S S S S S S S S S  
-------------------------------|--------------------------------|
-------------------------------|--------7---5-6-7-5-6-7-5-7-----|
--7--7--7----------------------|--0--0----0-----------------5-6-|
-----------0-1-2-0-1-2-0-2-0-2-|--------------------------------|


  E  E  E  S S S S S S S S S S    E  E  S S S S S S S S S S S S  
-------------------------------|--------------------------------|
-------------------------------|--------7---5-6-7-5-6-7-5-7-----|
--7--7--7----------------------|--0--0----0-----------------5-6-|
-----------0-1-2-0-1-2-0-2-0-2-|--------------------------------|


  E  E  E  S S S S S S S S S S    E  E  S S S S S S S S S S S S  
-------------------------------|--------------------------------|
-------------------------------|--------7---5-6-7-5-6-7-5-7-----|
--7--7--7----------------------|--0--0----0-----------------5-6-|
-----------0-1-2-0-1-2-0-2-0-2-|--------------------------------|


  E  E  E  S S S S S S S S S S    E  E  S S S S S S S S S S S S  
-------------------------------|--------------------------------|
-------------------------------|--------7---5-6-7-5-6-7-5-7-----|
--7--7--7----------------------|--0--0----0-----------------5-6-|
-----------0-1-2-0-1-2-0-2-0-2-|--------------------------------|


  E  E  E  S S S S S S S S S S    E  E  S S S S S S S S S S S S  
-------------------------------|--------------------------------|
-------------------------------|--------7---5-6-7-5-6-7-5-7-----|
--7--7--7----------------------|--0--0----0-----------------5-6-|
-----------0-1-2-0-1-2-0-2-0-2-|--------------------------------|


  E  E  E  S S S S S S S S S S    E  E  S S S S S S S S S S S S  
-------------------------------|--------------------------------|
-------------------------------|--------7---5-6-7-5-6-7-5-7-----|
--7--7--7----------------------|--0--0----0-----------------5-6-|
-----------0-1-2-0-1-2-0-2-0-2-|--------------------------------|


  E  E  E  S S S S S S S S S S    E  E  S S S S S S S S S S S S  
-------------------------------|--------------------------------|
-------------------------------|--------7---5-6-7-5-6-7-5-7-----|
--7--7--7----------------------|--0--0----0-----------------5-6-|
-----------0-1-2-0-1-2-0-2-0-2-|--------------------------------|


  E  E  E  S S S S S S S S S S    W                   W                 
-------------------------------|-------------------|-------------------|
-------------------------------|-------------------|-------------------|
--7--7--7----------------------|-------------------|-------------------|
-----------0-1-2-0-1-2-0-2-0-2-|-------------------|-------------------|


  W                   W                   W               W
------------------|------------------|------------------|------------------|
------------------|------------------|------------------|------------------|
------------------|------------------|------------------|------------------|
------------------|------------------|------------------|------------------|


  W                   W                   W                  
-------------------|-------------------|-------------------||
-------------------|-------------------|-------------------||
-------------------|-------------------|-------------------||
-------------------|-------------------|-------------------||


Duration Legend
---------------
W - whole
H - half
Q - quarter
E - 8th
S - 16th
T - 32nd
X - 64th
. - note dotted
|-n-|  - n-tuplets


Tablature Legend
----------------
L - tied note
x - dead note
g - grace note
(n) - ghost note
> - accentuded note
NH - natural harmonic
AH - artificial harmonic
TH - tapped harmonic
SH - semi harmonic
PH - pitch harmonic
h - hammer on
p - pull off
b - bend
br - bendRelease
pb - preBend
pbr - preBendRelease
brb - bendReleaseBend
\n/ - tremolo bar dip
\n - tremolo bar dive
-/n - tremolo bar Release up
/n\ - tremolo bar inverted dip
/n - tremolo bar return
-\n - tremolo bar Release down
S - shift slide
s - legato slide
/ -  slide into from below or out of upwards
\ -  slide into from above or out of downwards
~ - vibrato
W - wide vibrato
tr - trill
TP - tremolo picking
T - tapping
S - slap
P - pop
< - fade in
^ - brush up
v - brush down
----------------------------------------------------------------------------
less
plus
Add to Songbook Print Version How to play lesson Submit videolesson
Click the best TAGS for this song:
None of them
Contributor: turtkeep Correct

If you can not find the chords or tabs you want, look at our partner E-chords. If you are a premium member, you have total access to our video lessons.

If you find a wrong Bad To Me from Muse, click the correct button above.

login/signup
my songbooks
my recent views
my submits