Muse

Uprising bass

Muse

Album:Live at Rome Olympic Stadium

Year:2013

tools Ultimate Tabs

Start AutoScroll Font Size Down Font Size Up

Find us on Facebook

chords tabs
bass
ukulele keyboards
drums
flute
harmonica
guitar pro video
Ultimate-Tabs

Uprising

The entire song is pretty much this one octave pattern repeated all the way through, 
to the song for the rhythm but imagine the lower note is a quarter note and the higher note 
an eighth note and the song is going at 192 BPM

there are L's in place of some notes, those indicate that you tie it to the previous 
(I write this along with the rest of the song in Guitar Pro so the measures are correct in 
of duration

G||-------7-------7-------|--7-------7-------7-----|-----7-------7-------7--|
D||-----------------------|------------------------|------------------------|
A||--5-------5-------5----|-----5-------5-------5--|--L-----5-------5-------|
E||-----------------------|------------------------|------------------------|

-------7-------7-------|--7-------7-------7-----|-----7-------7-------7--|
-----------------------|------------------------|------------------------|
--5-------5-------5----|-----5-------5-------5--|--L-----5-------5-------|
-----------------------|------------------------|------------------------|

-------7-------7-------|--7-------7-------7-----|-----7-------7-------7--|
-----------------------|------------------------|------------------------|
--5-------5-------5----|-----5-------5-------5--|--L-----5-------5-------|
-----------------------|------------------------|------------------------|


--------12--------12--------|--12--------12-------10-----|
----------------------------|----------------------------|
--10--------10--------10----|------10--------8--------8--|
----------------------------|----------------------------|


-----10-------10-------10--|--------14--------14--------|
---------------------------|----------------------------|
--L------8--------8--------|--12--------12--------12----|
---------------------------|----------------------------|


--14--------14--------14------|-----14--------14--------14--|
------------------------------|-----------------------------|
------12--------12--------12--|--L------12--------12--------|
------------------------------|-----------------------------|


--------12--------12--------|--12--------12-------10-----|
----------------------------|----------------------------|
--10--------10--------10----|------10--------8--------8--|
----------------------------|----------------------------|


-----10-------6-------6--|-------7-------7-------|--7-------7-------7-----|
-------------------------|-----------------------|------------------------|
--L------4-------4-------|--5-------5-------5----|-----5-------5-------5--|
-------------------------|-----------------------|------------------------|


-----7-------7-------7--|--------12--------12--------|
------------------------|----------------------------|
--L-----5-------5-------|--10--------10--------10----|
------------------------|----------------------------|


--12--------12-------10-----|-----10--------13--------13--|
----------------------------|-----------------------------|
------10--------8--------8--|--L------11--------11--------|
----------------------------|-----------------------------|


--------14--------14--------|--14--------14--------14------|
----------------------------|------------------------------|
--12--------12--------12----|------12--------12--------12--|
----------------------------|------------------------------|


-----14--------14--------14--|--------12--------12--------|
-----------------------------|----------------------------|
--L------12--------12--------|--10--------10--------10----|
-----------------------------|----------------------------|


--12--------12-------10-----|-----10-------6-------6--|-------7-------7-------|
----------------------------|-------------------------|-----------------------|
------10--------8--------8--|--L------4-------4-------|--5-------5-------5----|
----------------------------|-------------------------|-----------------------|
less
plus
Add to Songbook Print Version How to play lesson Submit videolesson
Click the best TAGS for this song:
None of them
Contributor: diryqazw Correct

If you can not find the chords or tabs you want, look at our partner E-chords. If you are a premium member, you have total access to our video lessons.

If you find a wrong Bad To Me from Muse, click the correct button above.

login/signup
my songbooks
my recent views
my submits