tools Ultimate Tabs

Start AutoScroll Font Size Down Font Size Up

Find us on Facebook

chords
tabs
bass
ukulele keyboards
drums
flute
harmonica
guitar pro
video
Ultimate-Tabs

Na Na Na

(Intro) Ab Eb C# F# E Eb 

 
E|-----------------|-----------------|-----------------|-----------------| 
B|-----------------|-----------------|-----------------|-----------------| 
G|-----------------|-----------4-----|-----------------|-----------------| 
D|-6---6-4-6---6-4-|-6---6-4-6---6-4-|-----------------|-----------4-----| 
A|-----------------|-----------------|-6---6-4-6---6-4-|-6---6-4-6---6-5-| 
E|-----------------|-----------------|-----------------|-----------------| 


E|-----------------|-----------------|-----------------|-----------------| 
B|-----------------|-----------------|-----------------|-----------------| 
G|-----------------|-----------------|-----------------|-----------------| 
D|-----------------|-4---4---4---4-5-|-6---6-4-6---4---|---8-8-8-8-8-8-8-| 
A|-4---4---4---4---|-------6---------|-----------------|---6-6-6-6-6-6-6-| 
E|-------7-------7-|-----------------|-----------------|-----------------| 
Na na-na-na, na-na-na-na-na-na-na-na-na Ab Drugs, gimme drugs, gimme drugs Eb I don't need them but I'll sell what you got C#m Take the cash and I'll keep it eight legs to the wall F# Hit the gas, kill 'em all Ab Eb And we crawl, and we crawl, and we crawl You be my detonator Ab Love, gimme love, gimme love Ebm I don't need it but I'll take what I want C#m From your heart and I'll keep it in a bag F# In a box, put an X on the floor Ab Gimme more, gimme more, gimme more Eb Shut up and sing it with me (refrão) B Na na-na-na, na-na-na-na-na-na-na-na-na F# From mall security to every enemy Abm E G We're on your property standing in V formation B F# let's blow an artery, eat plastic surgery Abm E G Keep your apology give us more detonation ( Abm ) (More! Gimme more! Gimme more!) Ab Oh, let me tell ya 'bout the sad man Eb Shut up and let me see your jazz hands C# Remember when you were a madman F# Thought you was Batman Ab Hit the party with a gas can Eb Kiss me you animal B Na na-na-na, na-na-na-na-na-na-na-na-na F# You run the company. Abm F*** like a Kennedy E G I think we'd rather be burning your information B Na na-na-na, na-na-na-na-na-na-na-na-na F# Lets blow and artery Abm Eat plastic surgery E G Keep your apology give us more detonation Abm G And right here right now F#m C#m All the way in Battery City E D Ab Little children, raise their open filthy palms Like tiny daggers up to heaven Abm G F# And all the juvee halls and Ritalin rats Fm E Ask angels made from neon and f**cking garbage G Abm Scream out "What will save us?" And the sky opened up Eb Everybody wants to change the world Bm C# Everybody wants to change the world E Ebm But no one, no one wants to die Ab Wanna try, wanna try, wanna try Abm Wanna try, wanna try, oh Ab I'll be your detonator ( B F# Abm E G ) B Na na-na-na, na-na-na-na-na-na-na-na-na F# Make no apologies Abm It's death or victory Ab On my authority E Crash and burn G Young and loaded B Na na-na-na, na-na-na-na-na-na-na-na-na F# Drop like a bullet shell Abm Dress like a sleeper cell E G I'd rather go to hell than be in purgatory E G Cut my hair gag and bore me E G B Pull this pin let this world explode
less
plus
Add to Songbook Print Version How to play lesson Submit videolesson
Click the best TAGS for this song:
None of them
Contributor: incijhb0 Correct

If you can not find the chords or tabs you want, look at our partner E-chords. If you are a premium member, you have total access to our video lessons.

If you find a wrong Bad To Me from My Chemical Romance, click the correct button above.

login/signup
my songbooks
my recent views
my submits