Nação Zumbi

Toda Surdez Será Castigada tab

Nação Zumbi

tools Ultimate Tabs

Start AutoScroll Font Size Down Font Size Up

Find us on Facebook

chords
tabs
bass
ukulele
keyboards
drums
flute
harmonica
guitar pro
video
Ultimate-Tabs

Toda Surdez Será Castigada

(intro) 

E|-7-7-----------------| 
B|-----7-7-------------| 
G|---------------------| 
D|---------------------| 
A|---------------------| 
E|---------------------| 

(intro) 

(riff 1) 
E|-----2---2-----------| 
B|---3-------3---------| 
G|-4-----------1-------|    2x 
D|---------------------| 
A|---------------------| 
E|---------------------| 

(riff 2) 
E|----------2----------| 
B|-----3------3--------|    2x 
G|---0----------1------| 
D|-2-------------------| 
A|---------------------| 
E|---------------------| 

(após a intro tocar riff1 e riff2 durante a música) 

(depois o riff 2 fica) 
E|----------2------1---| 
B|-----3------3------3-| 
G|---0----------1------| 
D|-2-------------------| 
A|---------------------| 
E|---------------------| 

(riff 3) 
E|-5----------5--------| 
B|------7--------------|   (esse riff tem que ser feito com efeito na guitarra) 
G|---7-----7-----7-----| 
D|---------------------| 
A|---------------------| 
E|---------------------|  
less
plus
Add to Songbook Print Version How to play lesson Submit videolesson
Click the best TAGS for this song:
None of them
Contributor: PhilSeba Correct

If you can not find the chords or tabs you want, look at our partner E-chords. If you are a premium member, you have total access to our video lessons.

If you find a wrong Bad To Me from Nação Zumbi, click the correct button above.

login/signup
my songbooks
my recent views
my submits