tools Ultimate Tabs

Start AutoScroll Font Size Down Font Size Up

Find us on Facebook

chords
tabs
bass
ukulele
keyboards
drums
flute
harmonica
guitar pro
video
Ultimate-Tabs

Rush

RUSH - Nai Harvest



CAPO 2

Riff I -- 

     "Every...........thing...I.......do    is  so   rushed"
      I......wish.....that....I.......didn't care so...much

E-|---------------|---------------|---------------|----------|
B-|----0-----0----|----0-----0----|----0-----0----|----0h3---|
G-|----0-----0----|----0----(0)---|----0-----0----|----0-----|
D-|----9-----4----|----9-----7----|----9-----4----|----2-----|
A-|----10----5----|----10----5----|----10----5----|----3-----|
E-|----8-----3----|----8-----3----|----8-----3----|----------|



Riff II -- 

       "OOhh -- OooOOoohh"

E-|----------3----|----------3----|----------3----|----------|
B-|----8-----3----|----8-----3----|----8-----3----|----5-----|
G-|----9-----4----|----9-----4----|----9-----4----|----6b7---|
D-|----10----5----|----10----5----|----10----5----|----7-----|
A-|----10----0----|----10----0----|----10----0----|----0-----|
E-|---------------|---------------|---------------|----------|


Pre Chorus Riff -- 

Listen for PMs and accents

E--|---------------|---------------|
B--|----3-----3----|----3-----3----|
G--|----0-----0----|----0-----0----|
D--|----2-----x----|----2-----x----|
A--|----3-----2----|----0-----2----|
E--|---------------|----------3----|


Chorus -- 

      "Eve...love is...dead"

E-|---------------|---------|
B-|----10----5----|----3----|
G-|----0-----0----|----0----|
D-|----0-----0----|----0----|
A-|----7-----5----|----2----|
E-|----8-----5----|----3----|



Then it goes back into Riff I & II 

and then he plays a couple measures of this chord:

        |-----|
        |--5--|
        |--6--|
        |--7--|
        |--0--|
        |-----|

and then the beat change


Bridge:

Listen for strumming pattern, its pretty simple

              "Open up........your eyes
        
E--|----------------|------------------|        |---3---|
B--|----3---3-------|----3---3---------|        |---3---|
G--|----0---0-------|----0---0---------|   x2   |---0---| riff ends with the chord then straight
D--|----2---x-------|----2---2---------|        |---x---| back into the chorus
A--|----3---2-------|----3---0---------|        |---2---|
E--|----------------|------------------|        |---3---|

















less
plus
Add to Songbook Print Version How to play lesson Submit videolesson
Click the best TAGS for this song:
None of them
Contributor: Monamona Correct

If you can not find the chords or tabs you want, look at our partner E-chords. If you are a premium member, you have total access to our video lessons.

If you find a wrong Bad To Me from Nai Harvest, click the correct button above.

login/signup
my songbooks
my recent views
my submits