New Order

True Faith bass

New Order

Album:Substance

Year:1987

tools Ultimate Tabs

Start AutoScroll Font Size Down Font Size Up

Find us on Facebook

chords tabs
bass
ukulele keyboards
drums
flute
harmonica
guitar pro video
Ultimate-Tabs

True Faith

I am pretty sure that this is correct, i spent 30 minutes listening to the
 song and then i came up with this. give it a go and please rate.

chorus

\-----------------------------------------------------------------------
\-----------------------------------------------------------------------
\5-5-5-5-5-5-5-5-5-8-8-8-8-8-8-8-8-8-3-3-3-3-3-3-3-3-3------------------
\------------------------------------------------------3-3-3-3-3-3-3-3-3

------------------------------------------------------------------------
------------------------------------------------------------------------
-5-5-5-5-5-5-5-5-5-8-8-8-8-8-8-8-8-8-3-3-3-3-3-3-3-3-3------------------
-------------------------------------------------------3-3-3-3-3-3-3-3-3

------------------------------------------------------------------------
------------------------------------------------------------------------
-5-5-5-5-5-5-5-5-5-8-8-8-8-8-8-8-8-8-3-3-3-3-3-3-3-3-3------------------
-------------------------------------------------------3-3-3-3-3-3-3-3-3

------------------------------------------------------------------------
------------------------------------------------------------------------
-5-5-5-5-5-5-5-5-5-8-8-8-8-8-8-8-8-8-3-3-3-3-3-3-3-3-3-1-1-1-1-1-1-1-1-1
------------------------------------------------------------------------

verse

------------------------------------------------------------------
------------------------------------------------------------------
-5-5-5-5-5-5-5-5-1-1-1-1-3-3-3-3----------------------------------
---------------------------------5-5-5-5-5-5-5-5-5-5-5-5-5-5-5-5-5


------------------------------------------------------------------
------------------------------------------------------------------
-5-5-5-5-5-5-5-5-1-1-1-1-3-3-3-3-------------------------6-6-6h7h6
---------------------------------5-5-5-5-5-5-5-5-5-5-5-5----------

------------------------------------------------------------------
------------------------------------------------------------------
-5-5-5-5-5-5-5-5-3-3-3-3-3-3-3-3-1-1-1-1-1-1-1-1------------------
-------------------------------------------------5-5-5-5-5-5-5-5-5

------------------------------------------------------------------
------------------------------------------------------------------
-3-3-3-3-3-3-3-3-1-1-1-1-1-1-1-1----------------------------------
---------------------------------5-5-5-5-5-5-5-5-5-5-5-5-5-5-5-5-5

pre chorus

------------------------------------------------------------------
------------------------------------------------------------------
-5-5-5-5-5-5-5-5-5-5-5-5-5-5-5-5-5-5-5-5-5-5-5-5-5-5-5-5-5-5-5-5-5
------------------------------------------------------------------

------------------------------------------------------------------
------------------------------------------------------------------
-5-5-5-5-5-5-5-5-5-5-5-5-5-5-5-5-5-5-5-5-5-5-5-5------------------
-------------------------------------------------5-5-5-5-5-5-5-5-5

outro

------------------------------------------------------------------
------------------------------------------------------------------
------------------------------------------------------------------
-3-3-3-3-3-3-3-3-3-3-3-3-3-3-3-3-3-3-3-3-3-3-3-3-3-3-3-3-3-3-6h7h6

------------------------------------------------------------------
------------------------------------------------------------------
------------------------------------------------------------------
-3-3-3-3-3-3-3-3-3-3-3-3-3-3-3-3-3-3-3-3-3-3-3-3-3-3-3-3-3-3-6h7h6

chorus x 1
verse  x 1
chorus x 1
verse  x 1
chorus x 1
pre chorus x 1
chorus x 1
verse  x 1
chorus x 2
outro  x 2
less
plus
Add to Songbook Print Version How to play lesson Submit videolesson
Click the best TAGS for this song:
None of them
Contributor: angemast Correct

If you can not find the chords or tabs you want, look at our partner E-chords. If you are a premium member, you have total access to our video lessons.

If you find a wrong Bad To Me from New Order, click the correct button above.

login/signup
my songbooks
my recent views
my submits