Nickelback

Detangler tab

Nickelback

Album:Curb

Year:1996

tools Ultimate Tabs

Start AutoScroll Font Size Down Font Size Up

Find us on Facebook

chords
tabs
bass
ukulele
keyboards
drums
flute
harmonica
guitar pro video
Ultimate-Tabs

Detangler

OBS.: Ouça bastate a música antes de tocar, para saber onde entra cada um dos riff's.

Main riff:
E|---------------------------------------------------|
B|---------------------------------------------------|
G|------------5-5-x-5-5-------------7-7-7-7----------|
D|-7-7-x-7-7--5-5-x-5-5--5-5-x-5-5--7-7-7-7----------|
A|-7-7-x-7-7--3-3-x-3-3--5-5-x-5-5--5-5-5-5----------|
e|-5-5-x-5-5-------------3-3-x-3-3-------------------|


Ok!...aqui muda um pouco
E|---------------------------------------------------------------|
B|---------------------------------------------------------------|
G|---------------------5-5--5-5--5-5--5-5----------------------7-|
D|-7-7--7-7--7-7--7-7--5-5--5-5--5-5--5-5--5-5--5-5--5-5--5-5--7-|
A|-7-7--7-7--7-7--7-7--3-3--3-3--3-3--3-3--5-5--5-5--5-5--5-5--5-|
e|-5-5--5-5--5-5--5-5----------------------3-3--3-3--3-3--3-3----|
				     (chunk away at this chord)^

Psuedo-solo:
E|---------------------------------------------------|
B|---------------------------------------------------|
G|----5-5--5-5------------7-7--7-7-------------------|
D|-7--5-5--5-5--5-5--5-5--7-7--7-7--7-7--7-7---------|
A|-7--3-3--3-3--5-5--5-5--5-5--5-5--7-7--7-7---------|
e|-5------------3-3--3-3------------5-5--5-5---------|
   ^(Hormonics)

Outro:
E|---------------------------------------------------|
B|---------------------------------------------------|
G|----------5-5-5-5-----------7-7-7-7----------------|
D|-7-7-7-7--5-5-5-5--5-5-5-5--7-7-7-7----------------|
A|-7-7-7-7--3-3-3-3--5-5-5-5--5-5-5-5----------------|
e|-5-5-5-5-----------3-3-3-3-------------------------|


Letra Detangler                       

I asked you to stay
But you said there's no way
I begged-- you call
And you leave me after all
I know I'm not to blame
I know you don't feel the same
Didn't even tell me why
You just left me here to die
I stand, I fall, I bounce off these 4 walls
You laugh, you leave
And you leave me here alone,
Is this how its gonna be
It's fine for you and not for me
Did you even care at all
You stand, I fall

I'm guilty too
forsiring all to you
Well, that's my one sin
Sorry for giving in
Didn't mean to waste your time
Thanks for wasting mine
Could have to tried to let me be
Would you just set me free?

Could I pay you not to... 
less
plus
Add to Songbook Print Version How to play lesson Submit videolesson
Click the best TAGS for this song:
None of them
Contributor: boggtiar Correct

If you can not find the chords or tabs you want, look at our partner E-chords. If you are a premium member, you have total access to our video lessons.

If you find a wrong Bad To Me from Nickelback, click the correct button above.

login/signup
my songbooks
my recent views
my submits