Nightwish

Storytime bass

Nightwish

Album:Imaginaerum

Year:2012

tools Ultimate Tabs

Start AutoScroll Font Size Down Font Size Up

Find us on Facebook

chords tabs
bass
ukulele keyboards
drums
flute
harmonica
guitar pro video
Ultimate-Tabs

Storytime

Intro
G|---------------------------------------------------------------------------------------|
D|---------------------------------------------------------------------------------------|
A|--------------------3-/8-8-8-8-8-8-8-8-8-8-8-8-8-8-8-8-8-8-8-8-8-8-8-8-8-8-8-8-8-8-8-8-|
D|-3-3-------3-3-------------------------------------------------------------------------|

G|-------------------------------------------------------------|
D|-------------------------------------------------------------|
A|-8-8-8-8-8-8-8-8-8-8-8-8-8-8-8-8-8-8-8-8-8-6-3-1-------------|
D|---------------------------------------------------6-6---1-1-|

Main Riff 0:30
G|-----------------------------------------------------------------|
D|-----------------------------------------------------------------|
A|---------------------------------------------------2-------------|
D|-3---3-4-3---3---3-6-3---4-4-2-2-3---3-4-3---3---3---3---4---2---|

G|-----------------------------------------------------------|
D|-----------------------------------------------------------|
A|-----------------------------------------------------------|
D|-3---3-4-3---3---3-6-3---4-4-2-2-3---3-4-3---3---6-6---1-1-|

Verse 0:42
G|------------------------------------------------------------------|
D|o-----------------------------------------------------------------|
A|o---------------------------------------------------2-------------|
D|--3-3-3-4-3-3-3-3-3-6-3-3-4-4-2-2-3-3-3-4-3-3-3-3-3---3---4---2---|

G|--------------------------------------------------------------|
D|-------------------------------------------------------------o|
A|-------------------------------------------------------------o|
D|-3-3-3-4-3-3-3-3-3-6-3-3-4-4-2-2-3-3-3-4-3-3-3-3---6-6---1-1--|

Chorus 1:07
G|-----------------------------------------------------------------|
D|-----------------------------------------------------------------|
A|-----------------------------------------------------------------|
D|-3-3-3-3-3-3-3-3-3-3-3-3-3-3-3-5-6-6-6-6-6-6-6-6-6-6-6-6-6-6-6-5-|

G|-----------------------------------------------------------------|
D|-----------------------------------------------------------------|
A|---------------------------------1-1-1-1-1-1-1-1-1-1-1-1-3-1-----|
D|-1-1-1-1-1-1-1-1-1-1-1-1-1-1-3-5-----------------------------6-5-|

1:19
G|-----------------------------------------------------------------|
D|-----------------------------------------------------------------|
A|-----------------------------------------------------------------|
D|-3-3-3-3-3-3-3-3-3-3-3-3-3-3-3-5-6-6-6-6-6-6-6-6-6-6-6-6-6-8-6-5-|

G|---------------------------------------------------------------------|
D|---------------------------------------------------3-----------------|
A|---------------------------------1-1-1-1-1-1-1-1-1---3-1-3-1---------|
D|-1-1-1-1-1-1-1-1-1-1-1-1-5-5-6-6-----------------------------6-5-3-3-|

1:38 x3
G|------------------------------------------------------------------|
D|o-----------------------------------------------------------------|
A|o---------------------------------------------------2-------------|
D|--3-3-3-4-3-3-3-3-3-6-3-3-4-4-2-2-3-3-3-4-3-3-3-3-3---3---4---2---|

G|--------------------------------------------------------------|
D|-------------------------------------------------------------o|
A|-------------------------------------------------------------o|
D|-3-3-3-4-3-3-3-3-3-6-3-3-4-4-2-2-3-3-3-4-3-3-3-3---6-6---1-1--|

2:15 Chorus
G|-----------------------------------------------------------------|
D|-----------------------------------------------------------------|
A|-----------------------------------------------------------------|
D|-3-3-3-3-3-3-3-3-3-3-3-3-3-3-3-5-6-6-6-6-6-6-6-6-6-6-6-6-6-6-6-5-|

G|-----------------------------------------------------------------|
D|-----------------------------------------------------------------|
A|---------------------------------1-1-1-1-1-1-1-1-1-1-1-1-3-1-----|
D|-1-1-1-1-1-1-1-1-1-1-1-1-1-1-3-5-----------------------------6-5-|

2:26
G|-----------------------------------------------------------------|
D|---------------------3-------------------------------------------|
A|-------------------3---3---------------------------4-6-4---3-4-6-|
D|-3-3-3-3-3-3-3-3-3-------3-3-3-5-6-6-6-6-6-6-6-6-6-------6-------|

G|-----------------------------------------------------------------|
D|-----------------------------------------------------------------|
A|---------------------------------1-1-1-1-1-1-1-1-1-1-3-3-4-4-6-6-|
D|-1-1-1-1-1-1-1-1-1-1-1-1-1-1-3-5---------------------------------|

2:39
G|-----------------------------------------------------------------|
D|-----------------------------------------------------------------|
A|-------------------------------------------------------3-4-4-6-6-|
D|-3-3-3-3-3-3-3-3-3-3-3-3-5-5-5-5-6-6-6-6-6-6-6-6-6-6-6-----------|

G|-----------------------------------------------------------------|---|
D|-----------------------------------------------------------------|---|
A|---------------------------------1-1-1-1-1-1-1-1-1-1-1-1-1-3-4-3-|---|
D|-1-1-1-1-1-1-1-1-1-1-1-1-1-1-1-1---------------------------------|-8-|

Break

3:22
G|-----------------------------------------------------------------|
D|-----------------------------------------------------------------|
A|---------5---------------5-3-------------5-------1-1-1-1---1-3-4-|
D|-0-0-0-0---0-0-0-0-0-0-0-----7-5-0-0-0-0---0-0-0---------3-------|

G|-----------------------------------------------------------------|
D|-----------------------------------------------------------------|
A|---------5-------------------3-5---------5-------1-1-1-1---------|
D|-0-0-0-0---0-0-0-0-0-0-0-5-7-----0-0-0-0---0-0-0---------3-3-2-2-|

G|-----------------------------------------------------------------|
D|-----------------------------------------------------------------|
A|---------5-------------------3-5---------5-3-----1-1-1-1-----3-4-|
D|-0-0-0-0---0-0-0-0-0-0-0-5-7-----0-0-0-0-----7-5---------3-3-----|

G|-----------------------------------------------------------------|
D|-----------------------------------------------------------------|
A|---------5---------------5-3-----------------3-5-1-1-1-1---------|
D|-0-0-0-0---0-0-0-0-0-0-0-----7-5-0-0-0-0-5-7-------------3-3-2-2-|

3:46
G|-----------------------------------------------------------------|
D|-----------------------------------------------------------------|
A|---------5---------------5-3---5---------3-5-3---1-1-1-1-----3-3-|
D|-0-0-0-0---0-0-0-0-0-0-0-----5---0-0-0-0-------7---------3-3-----|

G|-------------------------------------------------|
D|-------------------------------------------------|
A|---------5-------------------3-5---------5-3-----|
D|-0-0-0-0---0-0-0-0-0-0-0-5-7-----0-0-0-0-----7-5-|

3:57
G|---3---3---3---3-------3---3---3-----5---5---5---5---5---5---5-5-|
D|-----------------------------------------------------------------|
A|-1---1---1---1---1-1-1---1---1---3-3---3---3---3---3---3---3-----|
D|-----------------------------------------------------------------|

G|-----------------------------------------------------------------|
D|-----------------------------------------------------------------|
A|-4-4-4-4-4-4-4-4-4-4-4-4-4-4-4-4-6-6-6-6-6-6-6-6-6-6-6-6-6-6-6-6-|
D|-----------------------------------------------------------------|

4:10
G|-----------------------------------------------------------------|
D|-7-6-------------------------------------------------------------|
A|-----6-----------------------------------------------------4-6---|
D|-------3-3-3-3-3-3-3-3-3-3-3-8---6-6-6-6-6-6-6-6-6-6-6-6-6-------|

G|-----------------------------------------------------------------|
D|-----------------------------------------------------------------|
A|---------------------------------1-1-1-1-1-1-1-1-1-1-1-1-3-1-----|
D|-1-1-1-1-1-1-1-1-1-1-1-1-1-1-3-5-----------------------------6-5-|

4:22
G|-----------------------------------------------------------------|
D|-----------------------------------------------------------------|
A|-----------------------1-3-1-3-1---------------------------3-4-6-|
D|-3-3-3-3-3-3-3-3-3-3-3-----------6-6-6-6-6-6-6-6-6-6-6-6-6-------|

G|-----------------------------------------------------------------|
D|-----------------------------------------------------------------|
A|---------------------------------1-1-1-1-1-1-1-1-1-1-3-3-4-4-6-6-|
D|-1-1-1-1-1-1-1-1-1-1-1-1-1-1-3-5---------------------------------|

4:34
G|-----------------------------------------------------------------|
D|-----------------------------------------------------------------|
A|---------------------------------------------------------4-4-6-6-|
D|-3-3-3-3-3-3-3-3-3-3-3-3-5-5-5-5-6-6-6-6-6-6-6-6-6-6-6-6---------|

G|------------------------------------------------------------------|
D|------------------------------------------------------------------|
A|------------------------------------------------------------------|
D|-1-1-1-1-1-1-1-1-1-1-5-6---6---6-8-8-8-8-8-8-8-8-8-8-8-8-10-8-6-5-|

4:46
G|-----------------------------------------------------------------|
D|-----------------------------------------------------------------|
A|-----------------------------------------------------------------|
D|-3-3-3-3-3-3-3-3-3-3-3-3-3-3-3-5-6-6-6-6-6-6-6-6-6-6-6-6-8-8-6-6-|

G|-----------------------------------------------------------------|
D|-----------------------------------------------------------------|
A|---------------------------------1-1-1-1-1-1-1-1-1-1-3-3-4-4-6-6-|
D|-1-1-1-1-1-1-1-1-1-1-1-1-1-1-3-5---------------------------------|

4:59
G|-----------------------------------------------------------------|
D|-----------------------------------------------------------------|
A|-----------------------------------------------------------------|
D|-3-3-3-3-3-3-3-3-3-3-3-3-3-3-3-3-6-6-6-6-6-6-6-6-6-6-6-6-6-6-6-6-|

G|-----------------------------------------------------------------|
D|-----------------------------------------------------------------|
A|---------------------------------1-1-1-1-1-1-3-3-4-4-3-3-1-1-1-1-|
D|-1-1-1-1-1-1-1-1-1-1-1-1-1-1-1-1---------------------------------|

G|-----------------------------------------------------------------|
D|-----------------------------------------------------------------|
A|---------------------------------------------------------3-3-4-4-|
D|-3-3-3-3-3-3-3-3-3-3-3-3-3-3-3-3-6-6-6-6-6-6-6-6-6-6-6-6---------|

G|----------------------------------------------------------------------|
D|-------------------------5---6---8-8-8-8-8-8-8\-----------------------|
A|-6-6-6-6-6-6-6-6-6-6-6-6--------------------------1---3---4---6-------|
D|------------------------------------------------------------------3-3-|
Tabbed by Dave Vucko
less
plus
Add to Songbook Print Version How to play lesson Submit videolesson
Click the best TAGS for this song:
None of them
Contributor: inculeni Correct

If you can not find the chords or tabs you want, look at our partner E-chords. If you are a premium member, you have total access to our video lessons.

If you find a wrong Bad To Me from Nightwish, click the correct button above.

login/signup
my songbooks
my recent views
my submits