Nirvana

Aneurysm (ver. 3) tab

Nirvana

tools Ultimate Tabs

Start AutoScroll Font Size Down Font Size Up

Find us on Facebook

chords
tabs
bass
ukulele
keyboards
drums
flute
harmonica
guitar pro
video
Ultimate-Tabs

Aneurysm (ver. 3)

Intro 
 
 E ----------------------------------- 
 B ----------------------------------- 
 G ------5-5-5-5--4-4-4-4--2-2-2-2----  x2 
 D -4-4--5-5-5-5--4-4-4-4--2-2-2-2---- 
 A -4-4--3-3-3-3--2-2-2-2--0-0-0-0---- 
 E -2-2------------------------------- 
 
 E ----------------------------------------------------------------------------------------------------- 
 B ----------------------------------------------------------------------------------------------------- 
 G -3-3-3-3/4-4-4-4/5-5-5-5/6-6-6-6/7-7-7-7/8-8-8-8/9-9-9-9/10-10/11-11/12-12/13-13/14-14/15/16/17/18/19 
 D ----------------------------------------------------------------------------------------------------- 
 A ----------------------------------------------------------------------------------------------------- 
 E ----------------------------------------------------------------------------------------------------- 
 
 E ----------------------------------- 
 B ----------------------------------- 
 G ------5-5-5-5--4-4-4-4--2-2-2-2----  x8 
 D -4-4--5-5-5-5--4-4-4-4--2-2-2-2---- 
 A -4-4--3-3-3-3--2-2-2-2--0-0-0-0---- 
 E -2-2------------------------------- 
 
then (bridge/outro) 
 
 E ----------------------------------------------------------------------------------------------------- 
 B ----------------------------------------------------------------------------------------------------- 
 G -3-3-3-3/4-4-4-4/5-5-5-5/6-6-6-6/7-7-7-7/8-8-8-8/9-9-9-9/10-10/11-11/12-12/13-13/14-14/15/16/17/18/19 
 D ----------------------------------------------------------------------------------------------------- 
 A ----------------------------------------------------------------------------------------------------- 
 E ----------------------------------------------------------------------------------------------------- 
 
then (verse, cmon over and do the twist bit) 
 
e ---------------------------------------------------------------0-0-0 
B ---------------------------------------------------------------0-0-0 
G ---------------------------------------------------------------0-0-0 
D -9-9-9-9--9-9-9-9--9-9-9-9--9-9-9-9--9-9-9-9--9-9-9-9--9-9-9-9------ 
A -9-9-9-9--9-9-9-9--9-9-9-9--9-9-9-9--9-9-9-9--9-9-9-9--9-9-9-9------ 
E -7-7-7-7--7-7-7-7--7-7-7-7--7-7-7-7--7-7-7-7--7-7-7-7--7-7-7-7------ 
 
e ----------------------------------- 
B ----------------------------------- 
G ----------------------------------- 
D -7--7---7-7-7-7---7--7---7-7-7-7--- 
A -7--7---5-5-5-5---5--5---5-5-5-7--- 
E -5--5---5-5-5-5---5--5---5-5-5-5--- 
 
then (Chorus, beat me outta me bit) 
 
e -------------------------------------- 
B -------------------------------------- 
G -------------------------------------- 
D -4-4--6--7---7-8---9-9-9--8--7-7-7---- 
A -4-4--6--7---7-8---9-9-9--8--7-7-7---- 
E -2-2--4--5---5-6---7-7-7--6--5-5-5---- 
 
well, that how i play it 
 
 
less
plus
Add to Songbook Print Version How to play lesson Submit videolesson
Click the best TAGS for this song:
None of them
Contributor: maurabdu Correct

If you can not find the chords or tabs you want, look at our partner E-chords. If you are a premium member, you have total access to our video lessons.

If you find a wrong Bad To Me from Nirvana, click the correct button above.

login/signup
my songbooks
my recent views
my submits