tools Ultimate Tabs

Start AutoScroll Font Size Down Font Size Up

Find us on Facebook

Ultimate-Tabs

Dumb

Nirvana 
Dumb 
 
Verso: 
Gb|--------------------------------------------------------------- 
Db|---------------------------------------------------------------                    x1 
Ab|------------------------3-3-3-3-----------------------3-3-3---- 
Eb|--0~--0/5---5--3-3-3-3------------0~--0/5---5-3-3-3-3-------3-- 
 
Refrao: 
Gb|--------------------------------------------------------------- 
Db|-------------------------------------------5-5-5-5-------------  x1 
Ab|---------------------------------5/7-5-7-5---------7-7--------- 
Eb|--0-0-0-0-0-0--3-3-3-3-3-3--0-0-------------------------------- 
 
Ponte: 
Gb|----------------------------------------- 
Db|-----------------------------------------        x3 
Ab|--2-2-2-0-----3-3------------------------ 
Eb|----------3-0-----3--3-2-0--------------- 
 -"Skin the sun, fall asleep..." 
 
Gb|----------------------------------------- 
Db|-----------------------------------------       x1 
Ab|--2-2-2-0-----3~------------------------- 
Eb|----------3-0---------------------------- 
 ^    -"Shoot the burn, wake me up" 
 || 
 || 
PRESTE ATENCAO NA AFINACAO DESSA MUSICA!! 
 
less
plus
Add to Songbook Print Version How to play lesson Submit videolesson
Click the best TAGS for this song:
None of them
Contributor: punksrom Correct

If you can not find the chords or tabs you want, look at our partner E-chords. If you are a premium member, you have total access to our video lessons.

If you find a wrong Bad To Me from Nirvana, click the correct button above.

login/signup
my songbooks
my recent views
my submits