tools Ultimate Tabs

Start AutoScroll Font Size Down Font Size Up

Find us on Facebook

Ultimate-Tabs

Lithium

 
Essa música está nos mínimos detalhes!!! 
 
  E         G#     C#     A      C     D       B    D 
|-----------------------------------------------------------| 
|-------------------------------------------------------3---| 
|-------------------------------------------------------2---| 
|--------------------6-------------5-------7-----4--0-0-0---| 
|-2-----------6--0-4-4--------7--3-3-3/5-5-5-0-2-2----------| 
|-0-P.M.-0--4-4---------0-5-5-5-----------------------------| 
 
I'm so happy  
'cause today I've found my friends, 
they're in my head 
I'm so ugly but that's ok,  
'cause so are you,  
we've broke our mirrors 
Sunday morning is everyday for all I care  
and I'm not scared 
Light my candles in a daze  
'cause I've found god 
 
  E      G#     C#     A      C     D       B    D 
|--------------------------------------------------------| 
|---------------------------------------------3-3-3------| 
|---------------------------------------------2-2-2------| 
|-------------6-6-----------5-5-5/7-7-7---4-4-0-0-0------| 
|-2-2---6-6-0-4-4-0-7-7-7-0-3-3-3/5-5-5-0-2-2------------| 
|-0-0-0-4-4---------5-5-5--------------------------------| 
Yeah, yeah(6x) 
 
  E         G#     C#     A      C     D       B    D 
|-----------------------------------------------------------| 
|-------------------------------------------------------3---| 
|-------------------------------------------------------2---| 
|--------------------6-------------5-------7-----4--0-0-0---| 
|-2-----------6--0-4-4--------7--3-3-3/5-5-5-0-2-2----------| 
|-0-P.M.-0--4-4---------0-5-5-5-----------------------------| 
I'm so lonely and that's ok,  
I shaved my head,  
and I'm not sad 
And just maybe  
I'm to blame for all I've heard,  
and I'm not sure 
I'm so excited  
I can't wait to meet you there,  
and I don't care 
I'm so horny but that's ok,  
my will is good 
 
 
  E      G#     C#     A      C     D       B    D 
|--------------------------------------------------------| 
|---------------------------------------------3-3-3------| 
|---------------------------------------------2-2-2------| 
|-------------6-6-----------5-5-5/7-7-7---4-4-0-0-0------| 
|-2-2---6-6-0-4-4-0-7-7-7-0-3-3-3/5-5-5-0-2-2------------| 
|-0-0-0-4-4---------5-5-5--------------------------------| 
Yeah, yeah(6x) 
 
  A      C      A      C      A      C 
|--------------------------------------------------------| 
|--------------------------------------------------------| 
|--------------------------------------------------------| 
|--------5-5-----------5-5-----------5-5-----------------| 
|-7-7----3-3-0--7-7----3-3-0--7-7----3-3-0---------------| 
|-5-5-0---------5-5-0---------5-5-0----------------------| 
I like you I'm not gonna crack,  
I miss you I'm not gonna crack 
I love you I'm not gonna crack,  
I kill you I'm not gonna crack 
I like you I'm not gonna crack,  
I miss you I'm not gonna crack 
I love you I'm not gonna crack,  
I kill you I'm not gonna crack 
  A           C             E 
|--------------------------------------------------------| 
|--------------------------------------------------------| 
|--------------------------------------------------------| 
|--------------------------------------------------------| 
|-7-7-7-7-7---5-5-5-5-5-5---2----------------------------| 
|-5-5-5-5-5-0-3-3-3-3-3-3-0-0----------------------------| 
 
 
  E         G#     C#     A      C     D       B    D 
|-----------------------------------------------------------| 
|-------------------------------------------------------3---| 
|-------------------------------------------------------2---| 
|--------------------6-------------5-------7-----4--0-0-0---| 
|-2-----------6--0-4-4--------7--3-3-3/5-5-5-0-2-2----------| 
|-0-P.M.-0--4-4---------0-5-5-5-----------------------------| 
I'm so happy  
'cause today I've found my friends,  
they're in my head 
I'm so ugly  
but that's ok,  
'cause so are you,  
we've broke our mirrors 
Sunday morning is everyday  
for all I care  
and I'm not scared 
Light my candles  
in a daze  
'cause I've found god 
 
Yeah, yeah(6x) 
  E      G#     C#     A      C     D       B    D 
|--------------------------------------------------------| 
|---------------------------------------------3-3-3------| 
|---------------------------------------------2-2-2------| 
|-------------6-6-----------5-5-5/7-7-7---4-4-0-0-0------| 
|-2-2---6-6-0-4-4-0-7-7-7-0-3-3-3/5-5-5-0-2-2------------| 
|-0-0-0-4-4---------5-5-5--------------------------------| 
 
Refrão: 
  A      C      A      C      A      C 
|--------------------------------------------------------| 
|--------------------------------------------------------| 
|--------------------------------------------------------| 
|--------5-5-----------5-5-----------5-5-----------------| 
|-7-7----3-3-0--7-7----3-3-0--7-7----3-3-0---------------| 
|-5-5-0---------5-5-0---------5-5-0----------------------| 
I like you I'm not gonna crack,  
I miss you I'm not gonna crack 
I love you I'm not gonna crack,  
I kill you I'm not gonna crack 
I like you I'm not gonna crack,  
I miss you I'm not gonna crack 
I love you I'm not gonna crack,  
I kill you I'm not gonna crack 
  A           C             E 
|--------------------------------------------------------| 
|--------------------------------------------------------| 
|--------------------------------------------------------| 
|--------------------------------------------------------| 
|-7-7-7-7-7---5-5-5-5-5-5---2----------------------------| 
|-5-5-5-5-5-0-3-3-3-3-3-3-0-0----------------------------| 
 
_______________________________________________________ 
Contribuição: Correção: RENAN ([email protected])  
less
plus
Add to Songbook Print Version How to play lesson Submit videolesson
Click the best TAGS for this song:
None of them
Contributor: Sounpawr Correct

If you can not find the chords or tabs you want, look at our partner E-chords. If you are a premium member, you have total access to our video lessons.

If you find a wrong Bad To Me from Nirvana, click the correct button above.

login/signup
my songbooks
my recent views
my submits