Nirvana

Polly Acoustic tab

Nirvana

tools Ultimate Tabs

Start AutoScroll Font Size Down Font Size Up

Find us on Facebook

chords
tabs
bass
ukulele
keyboards
drums
flute
harmonica
guitar pro video
Ultimate-Tabs

Polly Acoustic

-----------------------------------------------------------------------------
	        	       Polly - Unplugged In NY
-----------------------------------------------------------------------------
Tabber: skatersic666
Mail: [email protected]

Tuning 1/2 Step Down (Eb Ab Db Gb Bb eb)

This was hard to figure/tab out because off all the 
random picking in it but im sure its very accurate.

::CHORDS::
E5  : 022xxx
G5  : 355xxx
D   : xx0232
C5  : x355xx
G5+ : 3x0033
Bb5 : x133xx
----------------------------------------------------------------------------
			    The tab
----------------------------------------------------------------------------

::INTRO::
   E5      G5      D      C5          E5     G5     D      C5
               
e|-----------------2-2-0------------|---------------2-2-0------------|
B|-----------5-0---3-3-0----5-------|------------0--3-3-0----5-------|
G|-----------5-0---2-2-0--5-5-5-5-0-|----0-----5-0--2-2-0--5-5-5-5-0-|
D|-2-x-----5-5-0---0-0-0--5-5-5-5-0-|-2--2---5-5-0--0-0-0--5-5-5-5-0-|
A|-2-x-2---5-5------------3---3-3-0-|-2----0-5-5-----------3---3-3-0-|
E|-0---0---3------------------------|-0----0-3-3---------------------|
||P.M---                            P.M----


::VERSE ONE::
   E5    G5        D      C5         
        Polly wants a cracker___      
e|-----------------2-2-0------------------|
B|-----------------3-3-0----5---0---------|
G|---0-------------2-2-0--5-5-5-0---------|
D|-2-2-x-5--5-0----0-0-0--5-5-5-0---------|
A|-2---x-5--5-0-----------3-3-3-0---------|
E|-0-----3--3-0---------------------------|
|| E5      G5          D       C5
||       Think I should get off her first
e|---------------------2-2-0--------------|
B|---0---------5-0-----3-3-0------5----0--|
G|---0---------5-0-----2-2-0---5--5-5--0--|
D|-2-2------5--5-0-----0-0-0---5--5-5--0--|
A|-2--------5--5-0-------------3--3-3--0--|
E|-0---0----3-----------------------------|
|| E5    G5          D        C5
||     Think she wants some water____     
e|-------------------2-2--0---------------|
B|-------------------3-3--0---------------|
G|---0---------------2-2--0--5--5-5-0-----|
D|-2-2---5--5-0------0-0--0--5--5-5-0-----|
A|-2--2--5--5-0--------------3--3-3-0-----|
E|-0--0--3--3-0---------------------------|
|| E5    G5        D        C5
||     To put out the blow-torch__
e|-----------------2--2-0-----------------|
B|---0-------------3--3-0------5---0------|
G|---0-----5-------2--2-0---5--5-5-0------|
D|-2----5--5-0-----0--0-0---5--5-5-0------|
A|-2--x-5--5-0--------------3--3-3-0------|
E|-0--x-3--3-0----------------------------|


::CHORUS ONE::
   D    C5        G5    Bb5
           Isn't me___  Have some seed__
e|-2-0------------3-0----------------------|
B|-3-0------------3-0----------------------|
G|-2-0--5--5-5-0--0-0---3---3--3---0-------|
D|-0-0--5--5-5-0--0-0---3---3--3---0-------|
A|------3--3-3-0----0---1---1--1---0-------|
E|----------------3-0----------------------|
|| D    C5        G5    Bb5
||__      Let me clip__    Dirty wings__
e|-2-0------------3-0----------------------|
B|-3-0------------3-0----------------------|
G|-2-0--5--5-5-0--0-0---3---3--3---0-------|
D|-0-0--5--5-5-0--0-0---3---3--3---0-------|
A|------3--3-3-0----0---1---1--1---0-------|
E|----------------3-0----------------------|
|| D    C5          G5    Bb5
||__   Let me take a ride__   Hurt yourself
e|-2-0--------------3-0--------------------|
B|-3-0--------------3-0--------------------|
G|-2-0--5--5-5-0----0-0---3---3--3---0-----|
D|-0-0--5--5-5-0----0-0---3---3--3---0-----|
A|------3--3-3-0------0---1---1--1---0-----|
E|------------------3-0--------------------|
|| D    C5           G5    Bb5
||__     Want some help_____   Help mself___ 
e|-2-2-0-------------3-3-0-----------------|
B|-3-3-0-------------3-3-0-----------------|
G|-2-2-0--5--5-5-0---0-0-0--3---3--3---0---|
D|-0-0-0--5--5-5-0---0-0-0--3---3--3---0---|
A|--------3--3-3-0-------0--1---1--1---0---|
E|-------------------3-3-0-----------------|
|| D    C5           G5    Bb5
||__      Got some rope____  Have been told
e|-2-2-0-------------3-3-0-----------------|
B|-3-3-0-------------3-3-0-----------------|
G|-2-2-0--5--5-5-0---0-0-0--3---3--3----0--|
D|-0-0-0--5--5-5-0---0-0-0--3---3--3----0--|
A|--------3--3-3-0-------0--1---1--1----0--|
E|-------------------3-3-0-----------------|
|| D    C5           G5    Bb5
||__        Promise you_____  Have been true
e|-2-2-0-------------3-3-0-----------------|
B|-3-3-0-------------3-3-0-----------------|
G|-2-2-0--5--5-5-0---0-0-0--3---3--3---0---|
D|-0-0-0--5--5-5-0---0-0-0--3---3--3---0---|
A|--------3--3-3-0-------0--1---1--1---0---|
E|-------------------3-3-0-----------------|
|| D    C5          G5    Bb5
||__      Let me take a ride_ Hurt yourself
e|-2-0--------------3-0--------------------|
B|-3-0--------------3-0--------------------|
G|-2-0--5--5-5-0----0-0---3---3--3---0-----|
D|-0-0--5--5-5-0----0-0---3---3--3---0-----|
A|------3--3-3-0------0---1---1--1---0-----|
E|------------------3-0--------------------|
|| D    C5           G5    Bb5
||__     Want some help_____   Help myself__ 
e|-2-2-0-------------3-3-0-----------------|
B|-3-3-0-------------3-3-0-----------------|
G|-2-2-0--5--5-5-0---0-0-0--3---3--3---0---|
D|-0-0-0--5--5-5-0---0-0-0--3---3--3---0---|
A|--------3--3-3-0-------0--1---1--1---0---|
E|-------------------3-3-0-----------------|


::VERSE TWO::
  E5    G5     D      C5

e|-------------2-2-0-----------------------|
B|-------------3-3-0---------0-------------|
G|----------0--2-2-0--5--5-5-0-------------|
D|-2----5-5-0--0-0-0--5--5-5-0-------------|
A|-2-2--5-5-0---------3--3-3-0-------------|
E|-0-0--3-3-0------------------------------|
|| E5   G5     D      C5
||
e|-------------2-2-0-----------------------|
B|---0---------3-3-0-----------------------|
G|---0----5-0--2-2-0--5--5-5-0-------------|
D|-2----5-5-0--0-0-0--5--5-5-0-------------|
A|-2----5-5-0---------3--3-3-0-------------|
E|-0--0-3-3-0------------------------------|
|| E5   G5         D      C5
||      Polly wants a cracker___
e|-----------------2-2-0-------------------|
B|---0-------------3-3-0-------------------|
G|---0-----5-0-----2-2-0--5--5-5-0---------|
D|-2-----5-5-0-----0-0-0--5--5-5-0---------|
A|-2-----5-5-0------------3--3-3-0---------|
E|-0--0--3-3-0-----------------------------|
||E5   G5            D      C5
||     Maybe she would like more food
e|-------------------2-2-0-----------------|
B|---0---------------3-3-0-----------------|
G|---0------5-0------2-2-0---5--5-5-0------|
D|-2-----5--5-0------0-0-0---5--5-5-0------|
A|-2-----5--5-0--------------3--3-3-0------|
E|-0--0--3--3-0----------------------------|
||E5   G5            D      C5
||     She asked me to untie her____  
e|-------------------2-2-0-----------------|
B|---0---------------3-3-0-----------------|
G|---0------5-0------2-2-0---5--5-5-0------|
D|-2-----5--5-0------0-0-0---5--5-5-0------|
A|-2-----5--5-0--------------3--3-3-0------|
E|-0--0--3--3-0----------------------------|
||E5   G5            D      C5
||     Chase is pritty nice for a few_
e|-------------------2-2-0-----------------|
B|-------------------3-3-0-----------------|
G|----------5-0------2-2-0---5--5-5-0------|
D|-2-----5--5-0------0-0-0---5--5-5-0------|
A|-2-2---5--5-0--------------3--3-3-0------|
E|-0-0-0-3--3-0----------------------------|


::CHORUS TWO::
   D    C5        G5    Bb5
           Isn't me___   Have some seed__
e|-2-0------------3-0----------------------|
B|-3-0------------3-0----------------------|
G|-2-0--5--5-5-0--0-0---3---3--3---0-------|
D|-0-0--5--5-5-0--0-0---3---3--3---0-------|
A|------3--3-3-0----0---1---1--1---0-------|
E|----------------3-0----------------------|
|| D    C5        G5    Bb5
||__      Let me clip__    Dirty wings__
e|-2-0------------3-0----------------------|
B|-3-0------------3-0----------------------|
G|-2-0--5--5-5-0--0-0---3---3--3---0-------|
D|-0-0--5--5-5-0--0-0---3---3--3---0-------|
A|------3--3-3-0----0---1---1--1---0-------|
E|----------------3-0----------------------|
|| D    C5          G5    Bb5
||__   Let me take a ride__   Hurt yourself
e|-2-0--------------3-0--------------------|
B|-3-0--------------3-0--------------------|
G|-2-0--5--5-5-0----0-0---3---3--3---0-----|
D|-0-0--5--5-5-0----0-0---3---3--3---0-----|
A|------3--3-3-0------0---1---1--1---0-----|
E|------------------3-0--------------------|
|| D    C5           G5    Bb5
||__     Want some help_____   Help mself___ 
e|-2-2-0-------------3-3-0-----------------|
B|-3-3-0-------------3-3-0-----------------|
G|-2-2-0--5--5-5-0---0-0-0--3---3--3---0---|
D|-0-0-0--5--5-5-0---0-0-0--3---3--3---0---|
A|--------3--3-3-0-------0--1---1--1---0---|
E|-------------------3-3-0-----------------|
|| D    C5           G5    Bb5
||__       Got some rope____ Have been told
e|-2-2-0-------------3-3-0-----------------|
B|-3-3-0-------------3-3-0-----------------|
G|-2-2-0--5--5-5-0---0-0-0--3---3--3----0--|
D|-0-0-0--5--5-5-0---0-0-0--3---3--3----0--|
A|--------3--3-3-0-------0--1---1--1----0--|
E|-------------------3-3-0-----------------|
|| D    C5           G5    Bb5
||__       Promise you_____   Have been true
e|-2-2-0-------------3-3-0-----------------|
B|-3-3-0-------------3-3-0-----------------|
G|-2-2-0--5--5-5-0---0-0-0--3---3--3---0---|
D|-0-0-0--5--5-5-0---0-0-0--3---3--3---0---|
A|--------3--3-3-0-------0--1---1--1---0---|
E|-------------------3-3-0-----------------|
|| D    C5          G5    Bb5
||__      Let me take a ride_ Hurt yourself
e|-2-0--------------3-0--------------------|
B|-3-0--------------3-0--------------------|
G|-2-0--5--5-5-0----0-0---3---3--3---0-----|
D|-0-0--5--5-5-0----0-0---3---3--3---0-----|
A|------3--3-3-0------0---1---1--1---0-----|
E|------------------3-0--------------------|
|| D    C5           G5    Bb5
||__     Want some help_____   Help myself__ 
e|-2-2-0-------------3-3-0-----------------|
B|-3-3-0-------------3-3-0-----------------|
G|-2-2-0--5--5-5-0---0-0-0--3---3--3---0---|
D|-0-0-0--5--5-5-0---0-0-0--3---3--3---0---|
A|--------3--3-3-0-------0--1---1--1---0---|
E|-------------------3-3-0-----------------|


::BRIDGE::
   N.C
                  Polly said
e|--------x--x--|------------|-x------x---|
B|-x--x---x-----|------------|----x---x---|
G|-x--x---------|------------|----x---x---|
D|-x--x---------|------------|------------|
A|----x---------|------------|------------|
E|--------------|------------|------------|


::VERSE THREE::
   E5    G5       D       C5
       Polly says her back hurts__ 
e|----------------2-2-0------------------|
B|----------------3-3-0------------------|
G|----------------2-2-0---5--5-5-0-------|
D|-2-----5-5--0---0-0-0---5--5-5-0-------|
A|-2--2--5-5--0-----------3--3-3-0-------|
E|-0--0--3-3--0--------------------------|
|| E5    G5       D       C5
||     Shes just as bord as me__ 
e|----------------2-2-0------------------|
B|----------------3-3-0------------------|
G|----------------2-2-0---5--5-5-0-------|
D|-2-----5-5--0---0-0-0---5--5-5-0-------|
A|-2--2--5-5--0-----------3--3-3-0-------|
E|-0--0--3-3--0--------------------------|
|| E5    G5       D       C5
||      She caught me off my gaurd  
e|------------------2-2-0----------------|
B|------------------3-3-0----------------|
G|------------------2-2-0---5--5-5-0-----|
D|-2-----5-5--0-----0-0-0---5--5-5-0-----|
A|-2--2--5-5--0-------------3--3-3-0-----|
E|-0--0--3-3--0--------------------------|
|| E5    G5       D       C5
||      'mazes me the will, move instinct
e|------------------2-2-0----------------|
B|------------------3-3-0----------------|
G|------------------2-2-0---5--5-5-0-----|
D|-2-----5-5--0-----0-0-0---5--5-5-0-----|
A|-2--2--5-5--0-------------3--3-3-0-----|
E|-0--0--3-3--0--------------------------|


::CHOURS THREE::
   D    C5        G5    Bb5
           Isn't me___   Have some seed__
e|-2-0------------3-0----------------------|
B|-3-0------------3-0----------------------|
G|-2-0--5--5-5-0--0-0---3---3--3---0-------|
D|-0-0--5--5-5-0--0-0---3---3--3---0-------|
A|------3--3-3-0----0---1---1--1---0-------|
E|----------------3-0----------------------|
|| D    C5        G5    Bb5
||__      Let me clip__    Dirty wings__
e|-2-0------------3-0----------------------|
B|-3-0------------3-0----------------------|
G|-2-0--5--5-5-0--0-0---3---3--3---0-------|
D|-0-0--5--5-5-0--0-0---3---3--3---0-------|
A|------3--3-3-0----0---1---1--1---0-------|
E|----------------3-0----------------------|
|| D    C5          G5    Bb5
||__   Let me take a ride__   Hurt yourself
e|-2-0--------------3-0--------------------|
B|-3-0--------------3-0--------------------|
G|-2-0--5--5-5-0----0-0---3---3--3---0-----|
D|-0-0--5--5-5-0----0-0---3---3--3---0-----|
A|------3--3-3-0------0---1---1--1---0-----|
E|------------------3-0--------------------|
|| D    C5           G5    Bb5
||__     Want some help_____   Help mself___ 
e|-2-2-0-------------3-3-0-----------------|
B|-3-3-0-------------3-3-0-----------------|
G|-2-2-0--5--5-5-0---0-0-0--3---3--3---0---|
D|-0-0-0--5--5-5-0---0-0-0--3---3--3---0---|
A|--------3--3-3-0-------0--1---1--1---0---|
E|-------------------3-3-0-----------------|
|| D    C5           G5    Bb5
||__      Got some rope____  Have been told
e|-2-2-0-------------3-3-0-----------------|
B|-3-3-0-------------3-3-0-----------------|
G|-2-2-0--5--5-5-0---0-0-0--3---3--3----0--|
D|-0-0-0--5--5-5-0---0-0-0--3---3--3----0--|
A|--------3--3-3-0-------0--1---1--1----0--|
E|-------------------3-3-0-----------------|
|| D    C5           G5    Bb5
||__        Promise you_____  Have been true
e|-2-2-0-------------3-3-0-----------------|
B|-3-3-0-------------3-3-0-----------------|
G|-2-2-0--5--5-5-0---0-0-0--3---3--3---0---|
D|-0-0-0--5--5-5-0---0-0-0--3---3--3---0---|
A|--------3--3-3-0-------0--1---1--1---0---|
E|-------------------3-3-0-----------------|
|| D    C5          G5    Bb5
||__      Let me take a ride_ Hurt yourself
e|-2-0--------------3-0--------------------|
B|-3-0--------------3-0--------------------|
G|-2-0--5--5-5-0----0-0---3---3--3---0-----|
D|-0-0--5--5-5-0----0-0---3---3--3---0-----|
A|------3--3-3-0------0---1---1--1---0-----|
E|------------------3-0--------------------|
|| D    C5           G5    Bb5
||__     Want some help_____   Help myself__ 
e|-2-2-0-------------3-3-0-----------------|
B|-3-3-0-------------3-3-0-----------------|
G|-2-2-0--5--5-5-0---0-0-0--3---3--3---0---|
D|-0-0-0--5--5-5-0---0-0-0--3---3--3---0---|
A|--------3--3-3-0-------0--1---1--1---0---|
E|-------------------3-3-0-----------------|

   E
e|-----------------------------------------|
B|-----------------------------------------|
G|-0---------------------------------------|\ 
D|-2---------------------------------------| \Let Chord 
A|-2---------------------------------------| /  Ring
E|-0---------------------------------------|/


help with gutiars/more tabs/comments or anything mail to: 
[email protected]
-----------------------------------------------------------------------------
			            Key
-----------------------------------------------------------------------------

| /  slide up
| \  slide down
| h  hammer-on
| p  pull-off
| ~  vibrato
| +  harmonic
| x  Mute note

-----------------------------------------------------------------------------
			           
-----------------------------------------------------------------------------
less
plus
Add to Songbook Print Version How to play lesson Submit videolesson
Click the best TAGS for this song:
None of them
Contributor: ibudStor Correct

If you can not find the chords or tabs you want, look at our partner E-chords. If you are a premium member, you have total access to our video lessons.

If you find a wrong Bad To Me from Nirvana, click the correct button above.

login/signup
my songbooks
my recent views
my submits