Nirvana

Smells like Teen Spirit (100% right) drums

Nirvana

tools Ultimate Tabs

Start AutoScroll Font Size Down Font Size Up

Find us on Facebook

chords
tabs
bass
ukulele
keyboards
drums
flute
harmonica
guitar pro
video
Ultimate-Tabs

Smells like Teen Spirit (100% right)

Artist:NIRVANA 
 
 
 
Intro: (clean) 
e|--------------x-x-x-x---------x-x-------------x-x-x-x---------x-x--| 
b|--------------x-x-x-x---------x-x-------------x-x-x-x---------x-x--| 
g|--------------x-x-x-x-3---3-3-x-x-------------x-x-x-x-6---6-6-x----| 
d|--3-----3-3---x-x-x-x-3---3-3-x-x-6-----6-6---x-x-x-x-6---6-6-x-x--| 
a|--3-----3-3---x-x-x-x-1---1-1-x-x-6-----6-6---x-x-x-x-4---4-4-x-x--| 
E|--1-----1-1---x-x-x-x---------x-x-4-----4-4---x-x-x-x---------x-x--| 
    1 e + a 2 e + a 3 e + a 4 e + a 1 e + a 2 e + a 3 e + a 4 e + a 
 
 
Chorus : (overdrive) 
e|--------------x-x-x-x---------x-x-------------x-x-x-x---------x-x--| 
b|--------------x-x-x-x---------x-x-------------x-x-x-x---------x-x--| 
g|--------------x-x-x-x-3---3-3-x-x-------------x-x-x-x-6---6-6-x----| 
d|--3-----3-3---x-x-x-x-3---3-3-x-x-6-----6-6---x-x-x-x-6---6-6-x-x--| 
a|--3-----3-3---x-x-x-x-1---1-1-x-x-6-----6-6---x-x-x-x-4---4-4-x-x--| 
E|--1-----1-1---x-x-x-x---------x-x-4-----4-4---x-x-x-x---------x-x--| 
    1 e + a 2 e + a 3 e + a 4 e + a 1 e + a 2 e + a 3 e + a 4 e + a 
 
 
 
Verse: (clean) 
e|--------1-------------------------------1--------| 
b|------1-------------------------------1----------| 
g|-------------------------------------------------| 
d|-------------------------------------------------| 
a|-------------------------------------------------| 
E|-------------------------------------------------| 
    1 + 2 + 3 + 4 + 1 + 2 + 3 + 4 + 1 + 2 + 3 + 4 + 
 
Verse 2: (overdrive) 
e|------1-------1--| 
b|--1-------1------| 
g|-----------------| 
d|-----------------| 
a|-----------------| 
E|-----------------| 
    1 + 2 + 3 + 4 +  
 
Bridge:  (overdrive) 
e|---------------------------------------------| 
b|---------------------------------------------| 
g|-----------------3^--------------------------| 
d|--3--3-x-x-4--4------3--3-x-x--8-8-8--6-6-6--| 
a|--3--3-x-x-4--4------3--3-x-x--8-8-8--6-6-6--| 
E|--1--1-x-x-2--2------1--1-x-x--6-6-6--4-4-4--| 
 
 
Solo:  (overdrive) 
e|------------------------------------------------| 
b|----4--6-----4-4^--2-1----2-1-------------------| 
g|--5------1----------------------3--1--3-3^--1-0-| 
d|------------------------------------------------| 
a|------------------------------------------------| 
E|------------------------------------------------| 
 
e|------------------------------------------------| 
b|----4--6-----4-4^--2-1----2-1-------------------| 
g|--5------1----------------------3--1--3-3^--1-0-| 
d|------------------------------------------------| 
a|------------------------------------------------| 
E|------------------------------------------------| 
 
e|------------------------------------------------| 
b|------------------------------------------------| 
g|--1-0--1-0--1-0-1p0-----------------------------| 
d|---------------------3--------------------------| 
a|------------------------------------------------| 
E|------------------------------------------------| 
 
e|------------------------------------------------| 
b|------------------------------------------------| 
g|--1-0--1-0--1-0-1p0-----------------------------| 
d|---------------------3--------------------------| 
a|------------------------------------------------| 
E|------------------------------------------------| 
 
e|------------------------------------------------| 
b|------------------------------------------------| 
g|--1-0--1-0--1-0-1p0-----------------------------| 
d|---------------------3--------------------------| 
a|------------------------------------------------| 
E|------------------------------------------------| 
 
e|------------------------------------------------| 
b|------------------------------------------------| 
g|--1-0--1-0--1-0-1p0-----------------------------| 
d|---------------------3--------------------------| 
a|------------------------------------------------| 
E|------------------------------------------------| 
 
In the Background of the Solo is playing the Chorus 
 
ORDER: 
Intro 2x 
Chorus 4x 
Verse 3x 
Verse2 8x 
Chorus 6x 
Bridge 2x 
Verse 3x 
Verse2 8x 
Chorus 6x 
Bridge 2x 
SOLO 
Verse :withut guitar 
Verse2 8x 
Chorus 10x 
 
 
less
plus
Add to Songbook Print Version How to play lesson Submit videolesson
Click the best TAGS for this song:
None of them
Contributor: septlink Correct

If you can not find the chords or tabs you want, look at our partner E-chords. If you are a premium member, you have total access to our video lessons.

If you find a wrong Bad To Me from Nirvana, click the correct button above.

login/signup
my songbooks
my recent views
my submits