Nirvana

Smells Like Teen Spirit (ver. 2) tab

Nirvana

tools Ultimate Tabs

Start AutoScroll Font Size Down Font Size Up

Find us on Facebook

chords
tabs
bass
ukulele
keyboards
drums
flute
harmonica
guitar pro
video
Ultimate-Tabs

Smells Like Teen Spirit (ver. 2)

 
riff 1 
1|-----------------------------------------| 
2|-----------------------------------------| 
3|-----------------------------------------| 
4|-3-3-1-xx--x-9--9--9-x-7-77--xx--12-12---| 
5|-3-3-1-xx--x-9--9--9-x-7-77--xx--12-12---| 
6|-1-1-1-xx--x-7--7--7-x-5-55--xx--9--9----| 
 
1|------1-----------------------------------| 
2|-1----------------------------------------| 
riff 2 
 
vc tok o riff 1 umas vezes na introdução e tok o riff 2 quase a musik intera, e volta 
a tok o riff 1 nos refroes. 
 
 
 
smells depois q vc aprende fik mto facil. o esquema é fazer bem rápido, e enquanto vc  
abafa as cordas vc dizliza o dedo até a proxima casa. 
 
vlw gent \_____/©®Å?Ÿ Ðuck\_____/ ( www.mudo_vitor.zip.net ) fui galera 
 
less
plus
Add to Songbook Print Version How to play lesson Submit videolesson
Click the best TAGS for this song:
None of them
Contributor: yeisParc Correct

If you can not find the chords or tabs you want, look at our partner E-chords. If you are a premium member, you have total access to our video lessons.

If you find a wrong Bad To Me from Nirvana, click the correct button above.

login/signup
my songbooks
my recent views
my submits