Nirvana

Smells Like Teen Spirit bass

Nirvana

Album:Nirvana

Year:2002

tools Ultimate Tabs

Start AutoScroll Font Size Down Font Size Up

Find us on Facebook

Ultimate-Tabs

Smells Like Teen Spirit

Primeiro começa a guitarra sozinha e depois entra o baixo junto com a bateria 
 
E|-1--1-1---------4--4-4---------|-1--1-1---------4--4-4---------------| 
A|----------1-1-1----------4-4-4-|----------1-1-1----------4-4-4-------| 
D|----------------------------------- |-----------------------------------------| 
G|------------------------------------|-----------------------------------------| 
 
Na hora do vesrso e no semi-refrão 
 
E|-1-1-1-1------------4-4-4-4------------|-1-1-1-1------------4-4-4-4------------| 
A|------------1-1-1-1------------4-4-4-3-|------------1-1-1-1------------4-4-4-3-| 
D|---------------------------------------------|---------------------------------------------| 
G|---------------------------------------------|---------------------------------------------| 
 
O refrão é igual a abertura 
 
E|-1--1-1---------4--4-4---------|-1--1-1---------4--4-4---------------| 
A|----------1-1-1----------4-4-4-|----------1-1-1----------4-4-4-------| 
D|----------------------------------- |-----------------------------------------| 
G|------------------------------------|-----------------------------------------| 
 
Entre o final do refrão e o começo do segundo verso tem uma parte diferente 
 
E|-1-1------4-4------| 
A|------1-1------4~--| 
D|----------------------| 
G|----------------------| 
 
Na hora do solo de guitarra e da finalização o baixo fica como no refrão e abertura 
 
E|-1--1-1---------4--4-4---------|-1--1-1---------4--4-4---------------| 
A|----------1-1-1----------4-4-4-|----------1-1-1----------4-4-4-------| 
D|----------------------------------- |-----------------------------------------| 
G|------------------------------------|-----------------------------------------| 
 
less
plus
Add to Songbook Print Version How to play lesson Submit videolesson
Click the best TAGS for this song:
None of them
Contributor: dragbiau Correct

If you can not find the chords or tabs you want, look at our partner E-chords. If you are a premium member, you have total access to our video lessons.

If you find a wrong Bad To Me from Nirvana, click the correct button above.

login/signup
my songbooks
my recent views
my submits