tools Ultimate Tabs

Start AutoScroll Font Size Down Font Size Up

Find us on Facebook

chords
tabs
bass
ukulele
keyboards
drums
flute
harmonica
guitar pro video
Ultimate-Tabs

Nobody Else

                             Nobody Else
                           Noise Pollution

      E  E  E  E  E  E  E  E     E  E  E  E  E  E  E  E
G||---------------------------|--------------------------|
D||*--------------------------|--------------------------|
A||*--4--4--4--4--4--4--4--4--|--0--0--0--0--0--0--0--0--|
E||---------------------------|--------------------------|


  E  E  E  E  E  E  E  E     E  E  E  E  E  E  E  E
--------------------------|---------------------------||
--2--2--2--2--2--2--2--2--|--------------------------*||
--------------------------|--2--2--2--2--2--2--2--2--*||
--------------------------|---------------------------||


   E  S S S S Q    E  E  E     E  S S S S Q    E  E  E
----------------------------|---------------------------|
*---------------------------|---------------------------|
*--4--4-4-4-4-4----4--4--4--|--0--0-0-0-0-0----0--0--0--|
----------------------------|---------------------------|


  E  S S S S Q    E  E  E     E  S S S S Q    E  E  E   4x
---------------------------|----------------------------||
--2--2-2-2-2-2----2--2--2--|---------------------------*||
---------------------------|--2--2-2-2-2-2----2--2--2--*||
---------------------------|----------------------------||


  E  E  E  E  E  E  E  E     E  E  E  E  E  E  E  E
--------------------------|--------------------------|
--------------------------|--------------------------|
--4--4--4--4--4--4--4--4--|--4--4--4--4--4--4--4--4--|
--------------------------|--------------------------|


  E  E  E  E  E  E  E  E     E  E  E  E  E  E  E  E
--------------------------|--------------------------|
--------------------------|--------------------------|
--7--7--7--7--7--7--7--7--|--7--7--7--7--7--7--7--7--|
--------------------------|--------------------------|


  E  E  E  E  E  E  E  E     E  E  E  E  E  E  E  E
--------------------------|--------------------------|
--------------------------|--------------------------|
--------------------------|--------------------------|
--7--7--7--7--7--7--7--7--|--7--7--7--7--7--7--7--7--|


  E  E  E  E  E  E  E  E     W                     E  E  E  E  E  E  E  E
--------------------------|-------------------||---------------------------|
--------------------------|-------------------||*--------------------------|
--------------------------|-------------------||*--4--4--4--4--4--4--4--4--|
--5--5--5--5--5--5--5--5--|--5----------------||---------------------------|


  E  E  E  E  E  E  E  E     E  E  E  E  E  E  E  E
--------------------------|--------------------------|
--------------------------|--2--2--2--2--2--2--2--2--|
--0--0--0--0--0--0--0--0--|--------------------------|
--------------------------|--------------------------|


  E  E  E  E  E  E  E  E   6x   E  S S S S Q    E  E  E
---------------------------||----------------------------|
--------------------------*||*---------------------------|
--2--2--2--2--2--2--2--2--*||*--4--4-4-4-4-4----4--4--4--|
---------------------------||----------------------------|


  E  S S S S Q    E  E  E     E  S S S S Q    E  E  E
---------------------------|---------------------------|
---------------------------|--2--2-2-2-2-2----2--2--2--|
--0--0-0-0-0-0----0--0--0--|---------------------------|
---------------------------|---------------------------|


  E  S S S S Q    E  E  E   4x  E  E  E  E  E  E  E  E
----------------------------||--------------------------|
---------------------------*||--------------------------|
--2--2-2-2-2-2----2--2--2--*||--4--4--4--4--4--4--4--4--|
----------------------------||--------------------------|


  E  E  E  E  E  E  E  E     E  E  E  E  E  E  E  E
--------------------------|--------------------------|
--------------------------|--------------------------|
--4--4--4--4--4--4--4--4--|--7--7--7--7--7--7--7--7--|
--------------------------|--------------------------|


  E  E  E  E  E  E  E  E     E  E  E  E  E  E  E  E
--------------------------|--------------------------|
--------------------------|--------------------------|
--7--7--7--7--7--7--7--7--|--------------------------|
--------------------------|--7--7--7--7--7--7--7--7--|


  E  E  E  E  E  E  E  E     E  E  E  E  E  E  E  E     W
--------------------------|--------------------------|-------------------|
--------------------------|--------------------------|-------------------|
--------------------------|--------------------------|-------------------|
--7--7--7--7--7--7--7--7--|--5--5--5--5--5--5--5--5--|--5----------------|


    E  E  E  E  E  E  E  E     E  E  E  E  E  E  E  E
|---------------------------|--------------------------|
|*--------------------------|--------------------------|
|*--4--4--4--4--4--4--4--4--|--0--0--0--0--0--0--0--0--|
|---------------------------|--------------------------|


  E  E  E  E  E  E  E  E     E  E  E  E  E  E  E  E   4x
--------------------------|---------------------------||
--2--2--2--2--2--2--2--2--|--------------------------*||
--------------------------|--2--2--2--2--2--2--2--2--*||
--------------------------|---------------------------||


  E  E  E  E  E  E  E  E     E  E  E  E  E  E  E  E
--------------------------|--------------------------|
--------------------------|--------------------------|
--------------------------|--------------------------|
--2--2-----2--2-----------|-----------2--2--2-----2--|


  E  E  E  E  E  E  E  E     E  E  E  E  E  E  E  E
--------------------------|--------------------------|
--------------------------|--------------------------|
--------------------------|--------------------------|
--4--4-----4--4-----------|-----------4--4--4-----4--|


  E  E  E  E  E  E  E  E     E  E  E  E  E  E  E  E
--------------------------|--------------------------|
--------------------------|--------------------------|
--------------------------|--------------------------|
--2--2-----2--2-----------|-----------2--2--2-----2--|


  E  E  E  E  E  E  E  E     E  E  E  E  E  E  E  E
--------------------------|--------------------------|
--------------------------|--------------------------|
--------------------------|--------------------------|
--4--4-----4--4-----------|-----------4--4--4-----4--|


  E  E  E  E  E  E  E  E     E  E  E  E  E  E  E  E
--------------------------|--------------------------|
--------------------------|--------------------------|
--------------------------|--------------------------|
--2--2-----2--2-----------|-----------2--2--2-----2--|


  E  E  E  E  E  E  E  E     E  E  E  E  E  E  E  E
--------------------------|--------------------------|
--------------------------|--------------------------|
--------------------------|--------------------------|
--4--4-----4--4-----------|-----------4--4--4-----4--|


  E  E  E  E  E  E  E  E     E  E  E  E  E  E  E  E
--------------------------|--------------------------|
--------------------------|--------------------------|
--2--2-----2--2-----------|-----------2--2--2-----2--|
--------------------------|--------------------------|


  E  E  E  E  E  E  E  E     E  E  E  E  E  E  E  E
--------------------------|--------------------------|
--------------------------|--------------------------|
--2--2-----2--2-----------|-----------2--2--2--------|
--------------------------|--------------------------|


  E  E  E  E  E  E  E  E     E  E  E  E  E  E  E  E
--------------------------|--------------------------|
--------------------------|--------------------------|
--------------------------|--------------------------|
--------------------------|--------------------------|


  E  E  E  E  E  E  E  E     E  E  E  E  E  E  E  E
--------------------------|--------------------------|
--------------------------|--------------------------|
--------------------------|--------------------------|
--------------------------|--------------------------|


  E  E  E  E  E  E  E  E     E  E  E  E  E  E  E  E
--------------------------|--------------------------|
--------------------------|--------------------------|
--------------------------|--------------------------|
--7--7--7--7--7--7--7--7--|--7--7--7--7--7--7--7--7--|


  E  E  E  E  E  E  E  E     W                     E  E  E  E  E  E  E  E
--------------------------|-------------------||---------------------------|
--------------------------|-------------------||*--------------------------|
--------------------------|-------------------||*--4--4--4--4--4--4--4--4--|
--5--5--5--5--5--5--5--5--|--5----------------||---------------------------|


  E  E  E  E  E  E  E  E     E  E  E  E  E  E  E  E
--------------------------|--------------------------|
--------------------------|--2--2--2--2--2--2--2--2--|
--0--0--0--0--0--0--0--0--|--------------------------|
--------------------------|--------------------------|


  E  E  E  E  E  E  E  E   4x
---------------------------||
--------------------------*||
--2--2--2--2--2--2--2--2--*||
---------------------------||
less
plus
Add to Songbook Print Version How to play lesson Submit videolesson
Click the best TAGS for this song:
None of them
Contributor: nek!mc_f Correct

If you can not find the chords or tabs you want, look at our partner E-chords. If you are a premium member, you have total access to our video lessons.

If you find a wrong Bad To Me from Noise Pollution, click the correct button above.

login/signup
my songbooks
my recent views
my submits