S Norah Jones

What am i to you tab

Norah Jones

Album:Feels Like Home

Year:2004

tools Ultimate Tabs

Start AutoScroll Font Size Down Font Size Up

Find us on Facebook

chords
tabs
bass
ukulele keyboards
drums
flute
harmonica
guitar pro video
Ultimate-Tabs

What am i to you

-------------------------------------------------------------------------------
                       What am I to you - Norah Jones
-------------------------------------------------------------------------------

Tabbed by: Peter Smids  
Email: [email protected]

Please mail me for comments or questions

Tuning: standard, no capo



Intro:

e|---------x-x-----------------3------7b8r7-7-------3-x-----------3-x--------|
B|---------5-x-----------------3--------------6s5~--5-x--5s3-3-1--3-x--------|
G|---------5-x-----------------4--7s5----------------------------------------|
D|---------5-x--------------5------------------------------------------------|
A|-----3---3-x--------------5------------------------------------------------|
E|-3s5-----x-x--5s8--0-1-3--3------------------------------------------------|



Verse 1:

e|----------x-x------------------0-x-----------------------------------------|
B|----------5-x------------------1-x-----------------------------------------|
G|----------5-x------------------0-x-----------------------------------------|
D|----------5-x------------------2-x----------------7--x--5s7--5-------------|
A|-----1-3--3-x---5---2h3--2h3s2-2-x----------------7--x---------7s5---------|
E|-1-3------x-x-5----------------x-x--5h7-7--1-3-5--5--x-------------5s3-3---|

e|------------1------------3-x-----------------------------------------------|
B|------------1------------4-x-----------------------------------------------|
G|------------2------------4-x--------------5---5----------------------------|
D|-2s3--3-3---3-----------------------------5---5----------------------------|
A|-2s3--3-3---3---------------------------2-3---3-5-7-8-7-7s5---5------------|
E|----------1------1--1s3--------1s3-3--5-----------------------3------------|



Verse 2:

e|-----xsx----s8----------------------5-x------------------------------------|
B|-----3s5------8-8s6s5~--------------5-x------------------------------------|
G|-----3s5----------------------------5-x------------------5--5s2~-----------|
D|-----3s5----------------------------7-x-----5x-------3s5-------------------|
A|-0-1-1s3----------------------------7-x--7---------------------------------|
E|-----xsx----------------5h7-7--1s5--5-x--------5s3-3-----------------------|

e|---1---1-x--------3-x------------------------------------------------------|
B|---1---1-x--------3-x---s3--6--5-3-----------------------------------------|
G|---2---2-x--------4-x--------------5---------7b9--7-5s4--------------------|
D|---3--------------5-x----------------2------------------8s7-5--------------|
A|---3--------------5-x-------------------3s2-------------------7s5-3--------|
E|-1---------1-1s3--3-x-----------------------------------------------5--0---|



Chorus:

e|---1-----8-x---s8----------s7---7--5-------------3s5--5s3s5----------------|
B|---1-----8-x---s8---8------s7------5-------------3s5-----------------------|
G|---2-----------s9----------s7---------7brs5--5----------------5---5--------|
D|---3-s2--------s10------9--s9-----------------4-----------------5----------|
A|---3-s2--------s10------7--s9----------------------------------------------|
E|-1-1-----------s8-------7--s7----------------------------------------------|

e|-sx------------------------------------------------------------------------|
B|-s5---------------8--------------------------------------------------------|
G|-s5----------5-7b---r7~--4h7p4---------------------------------------------|
D|-s5----5-5s7-------------------5s3-----------------------------------------|
A|-s3--3---------------------------------------------------------------------|
E|-sx------------------------------------------------------------------------|



Verse 3: 

e|--------s8--x--------------------------------------------------------------|
B|--------s8--x--------------------------------------------------------------|
G|--------s9--x----------------------------5-x---4---------------------------|
D|--------s10-x----------9-x-------9-x-----7-x---5---------------------------|
A|-----3--s10-x----------7-x-------7-x-----7-x---5---------------------------|
E|-3s5----s9--x---7h8-8--7-x--5h7--7-x---3s5-x---3---------------------------|

e|-----------1-x-----1-x-------3-x------------x------------------------------|
B|-----------1-x-----1-x-------3-x------------5------------------------------|
G|-----------2-x-----2-x-------4-x------------5--5-x---x---------------------|
D|-----------3-x-----3-x-------5-x------------5--5-x-------------------------|
A|----------------------------------------3---3--3-x-------------------------|
E|-s8-8s1--1------1-------1s3------3s5--------x------------------------------|



Solo:

e|---------------------------------------------------------------------------|
B|---------------------------------------------------------------------------|
G|-12-12-12-12s10-10-10-10s9-9-9-9s7--7s9~------7h9p7------------------------|
D|----------------------------------------------------10---------------------|
A|-------------------------------------------------------10s8-8s7--5---------|
E|---------------------------------------------------------------------------|

e|---------------------------------------------------------------------------|
B|-----------------------------------------------5--s10~---------------------|
G|--7b9--7b9--9r7--5-----------------------5-7------------9--9s7-------------|
D|-------------------7~---5h7----------5s7------------------------10s7-------|
A|----------------------------7s3--------------------------------------------|
E|--------------------------------3------------------------------------------|

e|---------------------------------------------------------------------------|
B|---------8----8-------------------------------------------------------5-s10|
G|-5s7--7b---7b----7br--5-7-5-----5~---7s5-----5----------------0h2-2s5---s9-|
D|----------------------------7-5---------5s3----5-3-2-------0h2-------------|
A|----------------------------------------------------5-3-2-1----------------|
E|---------------------------------------------------------------------------|



Chorus:

e|-------------------------------------------------5---3---------------------|
B|-------------------s12--12s15--13-12-------------5---3---------------------|
G|-10---9---s-9------------------------11r9b11~----5---4-----------2-x---2-x-|
D|-10---9---s10------------------------------------7---5-----------3-x---3-x-|
A|-8----7---s10------------------------------------7---5----5s3----3-x---3-x-|
E|-x----7---s-8------------------------------------5---3--------1--1-x---1-x-|

e|--------3----------------------8-------------------------------------------|
B|--------3---------------8-10--8---8s10--8----------------------------------|
G|--2s4---4-----------7b9-------------------7--7br7~---4h7p4-----------------|
D|--3s5-----5s9--9-------------------------------------------5s3-------------|
A|--3s5-----5s9--9-----------------------------------------------3s5s3-------|
E|--1s3-----3s8--8-----------------------------------------------------------|



Verse 4:

e|--x-x--------------------s5--s3------------x---------1-x--------3----------|
B|--5-x-----5~-----5s10----s5--s3--1s3--1s3--1---------1-x--------3----------|
G|--5-x--------------------------------------2---------2-x--------4----------|
D|--5-x--------------------------------------3---------3-x---3s5--5----------|
A|--3-x--------------------------------------x--5------------3s5-------------|
E|--x-x------------------------------------------3-x---------1s3-------------|

e|--------------s8---------------------------------1-x------1s3---3----------|
B|----10-8------s8-------------10~-----------------1-x------1s3---3----------|
G|-s9------9-7--s9---s9---7--5s-9~-----------------2-x--x---2s4---4----------|
D|--------------s10--s10---------------------------3-x--x---------5----------|
A|--------------s10------------------------2-3-----3-x------------5--3s5--3--|
E|--------------s8-------------------3s5-5------1-----------------3----------|



Outro:

e|------------8--------------------------------------------------------------|
B|------8--10----10s8-8-----8------------------------------------------------|
G|--7b9-----------------7b9---9r7---5~---------------------------------------|
D|---------------------------------------------------------------------------|
A|---------------------------------------------------------------------------|
E|---------------------------------------------------------------------------|



| b  bend
| r  release
| s  slide
| h  hammer-on
| p  pull-off
| ~  vibrato
| x  Mute note
===============================================================================
less
plus
Add to Songbook Print Version How to play lesson Submit videolesson
Click the best TAGS for this song:
None of them
Contributor: fresrbok Correct

If you can not find the chords or tabs you want, look at our partner E-chords. If you are a premium member, you have total access to our video lessons.

If you find a wrong Bad To Me from Norah Jones, click the correct button above.

login/signup
my songbooks
my recent views
my submits