Nothing But Thieves

Graveyard Whistling tab

Nothing But Thieves

chords
tabs
bass
ukulele
keyboards
drums
flute
harmonica
guitar pro
video
Ultimate-Tabs

Graveyard Whistling

-------------------------------------------------------------------------------
                  Graveyard Whistling - Nothing But Thieves
-------------------------------------------------------------------------------
Tabbed by: potatospud

Tuning: Standard
Verse
e|---------------------------------------------------------------------------|
B|---------------------------------------------------------------------------|
G|----6--------------------8----------5-5------------------------------------|
D|-------3--5--6--5h6---------5--6--8--8-------------------------------------|
A|-----------------------6--6--6--6------------------------------------------|
E|--6--6--6--6--6------------------------------------------------------------|

Pre chorus "No one's getting younger"

e|----------------------------------------------------------------------------|
B|-2--------------------------------------------------------------------------|
G|-3---1---3---6---5---1---3--------------------------------------------------|
D|-----3---4---8---6---3---4--------------------------------------------------|
A|-1--------------------------------------------------------------------------|
E|-----1---2---6---4---1---2--------------------------------------------------|

Chorus is 
Bbm, F#, G#, F#- "Cos if you don't believe"

And the bridge is the same as the pre-chorus

************************************

| /   slide up
| \   slide down
| h   hammer-on
| p   pull-off
| ~   vibrato
| +   harmonic
| x   Mute note
| b   Bend
| pb  Pre-bend
| br  Bend release
| pbr Pre-bend release
| brb Bend release bend

************************************
less
plus
Add to Songbook Print Version How to play lesson Submit videolesson
Click the best TAGS for this song:
None of them
Contributor: dickArtu Correct

If you can not find the chords or tabs you want, look at our partner E-chords. If you are a premium member, you have total access to our video lessons.

If you find a wrong Bad To Me from Nothing But Thieves, click the correct button above.

login/signup
my songbooks
my recent views
my submits