S O Rappa

A Feira bass

O Rappa

Album:Rappa Mundi

Year:1996

tools Ultimate Tabs

Start AutoScroll Font Size Down Font Size Up

Find us on Facebook

chords
tabs
bass
ukulele keyboards
drums
flute
harmonica
guitar pro
video
Ultimate-Tabs

A Feira

Todos os versos: 
 
G|---------------------------| 
D|---------------------------| 
A|--------5-5--5-3-3--3-3--3-| 
E|-3-3--3--------------------| 
 
 
Mas eu não sou autorizado quando o Rappa chega...(1ª Vez) 
 
G|--------------------------------------| 
D|--------------------------------------| 
A|-3--2--0--3---------------------------| 
E|-------------0--0-0--0-5--5-5--5--5-5-| 
 
G|----------------------------------------| 
D|----------------------------------------| 
A|-3--2--0--3-----------------------------| 
E|-------------0--0-0--0-5--5-5--5-0--0-0-| 
 
 
Mas eu não sou autorizado quando o Rappa chega...(2ª Vez) 
 
G|--------------------------------------| 
D|--------------------------------------| 
A|-3--2--0--3---------------------------| 
E|-------------0--0-0--0-5--5-5--5--5-5-| 
 
G|--------------------------------------------------| 
D|--------------------------------------------------| 
A|-3--2--0--3---------------------------------------| 
E|-------------0--0-0--0-5--5-5--5-0--0-0--0-5--5-5-| 
 
 
Porque os remédios não mais amenizam... 
 
G|--------------------------------| 
D|--------------------------------| 
A|--------------------------------| (até voltar no verso) 
E|-7--7-7--7--7-7--7--7-7--7--7-7-| 


Cifrada Por: "Raul Faust De Luca"  
less
plus
Add to Songbook Print Version How to play lesson Submit videolesson
Click the best TAGS for this song:
None of them
Contributor: Jackcoch Correct

If you can not find the chords or tabs you want, look at our partner E-chords. If you are a premium member, you have total access to our video lessons.

If you find a wrong Bad To Me from O Rappa, click the correct button above.

login/signup
my songbooks
my recent views
my submits