O Rappa

Hey Joe bass

O Rappa

Album:Instinto Coletivo

Year:2001

tools Ultimate Tabs

Start AutoScroll Font Size Down Font Size Up

Find us on Facebook

chords tabs
bass
ukulele keyboards
drums
flute
harmonica
guitar pro
video
Ultimate-Tabs

Hey Joe

|F#||------------------|------------------|--------------7-----7----|| 
|C#||------------------|------------------|----------7h9---7h9---9\-|| 
|G#||------------------|------------------|-------------------------|| 
|D#||------------------|------------------|-------------------------|| 
                                                                             
------------------------|-------------------------|------------------------| 
------------------------|-------------------------|------------------------| 
--3------3-------2-2-3--|--5------5--------5-5-6--|--7----7--------5----5--| 
------------3-----------|------------5--5---------|--------------7----7----| 
                                                                             
------------------------|-------------------------|------------------------| 
------------------------|-------------------------|------------------------| 
--7----7----7---7--7-5--|--3-----3---------2-2-3--|--5------5-------5-5-6--| 
------------------------|----------3--3-----------|------------5-----------| 
                                                                            
------------------------|------------------------|------------------------| 
------------------------|------------------------|------------------------| 
--7----7--------5----5--|--7----7----7---7--7-7\-|--3------3-------2-2-3--| 
--------------7----7----|------------------------|------------3-----------| 
                                                      
--------------------------|-------------------------| 
--------------------------|-------------------------| 
--5------5---------5-5-6--|--7----7-------5-----5-6-| 
------------5-5-5---------|-------------7-----7-----| 
                                                          
-------------------------------|------------------------| 
-------------------------------|------------------------| 
--7--7--7--7-7-7-7-7--7-7-7-7\-|--3------3\------2-2-3--| 
-------------------------------|------------3-----------| 
                                                        
---------------------------|--------------------------| 
---------------------------|--------------------------| 
--5--5--5--5--------4-4-5--|--7----7----7----5----5-6-| 
--------------5--5---------|---------------7----7-----| 
                                                           
-------------------------------|-------------------------| 
-------------------------------|-------------------------| 
--7-7-7--7--7--7-7-7--7-7-7-7\-|--3--3----3-------2-2-3--| 
-------------------------------|-------------3-----------| 
                                                         
--------------------------|----------------------------| 
--------------------------|----------------------------| 
--5--5----5--------3-3-5--|--7----7--7-7-7----5----5-x-| 
-------------5--5---------|-----------------7----7-----| 
                                                                
----------------------------------|---------------------------| 
----------------------------------|---------------------------| 
--7--7--7-7-7-7-7-7-7-7--7-7-7-7\-|--3--3----3---------2-2-3--| 
----------------------------------|-------------3--3-3--------| 
                                                           
---------------------------|-----------------------------| 
---------------------------|-----------------------------| 
--5----5--5-5-------4-4-5--|--7--7--7--7-7-7----5----5-6-| 
--------------5--5---------|------------------7----7-----| 
                                                                
-----------------------------------|--------------------------| 
-----------------------------------|--------------------------| 
--7-7-7-7-7--7--5/7-7-7-7-7-7-7-7\-|--3----3--3--------2-2-3--| 
-----------------------------------|-------------3--3---------| 
                                                          
---------------------------|----------------------------| 
---------------------------|----------------------------| 
--5----5--5\-------4-4-5-6-|--7----7--7-7-7----5----5-6-| 
-------------5--5----------|-----------------7----7-----| 
                                                             
--------------------------------|--------------------------| 
--------------------------------|--------------------------| 
--7-7-7-7-7--7--7-7-7--7-7-7-7\-|--3----3--3--------2-2-3--| 
--------------------------------|-------------3--3---------| 
                                                         
----------------------------|--------------------------| 
----------------------------|--------------------------| 
--5--5-5-5/-7--------4-4-5--|--7----7----7----5----5-6-| 
---------------5--5---------|---------------7----7-----| 
                                                          
------------------------------|-------------------------| 
------------------------------|-------------------------| 
--7--7--7-7-7--5/7-7-7-7-7-7\-|--3------3--------2-2-3--| 
------------------------------|------------3--3---------| 
                                                          
-------------------------|------------------------------| 
-------------------------|------------------------------| 
--5------5--------4-4-5--|--7--7-7-7-7-7\-7----5----5h6-| 
------------5--5---------|-------------------7----7-----| 
                                                                
-----------------------------------|--------------------------| 
-----------------------------------|--------------------------| 
--7--7-7-7-7--7-7-7-7-7-7-7-7-7-7\-|--3----3--3--------2-2-3--| 
-----------------------------------|-------------3--3---------| 
                                                        
-------------------------|----------------------------| 
-------------------------|----------------------------| 
--5----5--5-------4-4-5--|--7--7--7--7--7----5----5-5-| 
-------------5-----------|-----------------7----7-----| 
                                                                
-----------------------------------|--------------------------| 
-----------------------------------|--------------------------| 
--7-7-7-7--7-7-7--7-7-7-7-7-7-7-7\-|--3--------------2--3--4--| 
-----------------------------------|-----0--1--2--3-----------| 
                                                      
--------------------------|-------------------------| 
--------------------------|-------------------------| 
--5--------------4--5--6\-|--7----7--------5----5-6-| 
-----2--3--4--5-----------|--------------7----7-----| 
                                                                       
----------------------------------------|----------------------------| 
----------------------------------------|----------------------------| 
--7-7-7-7-7-7-7-7-7--5/7-7-7-7-5/7-7-7\-|--3--3-3-3--3--------2-2-3--| 
----------------------------------------|---------------3--3---------| 
                                                           
---------------------------|-----------------------------| 
---------------------------|-----------------------------| 
--5--5-5------------4-4-5--|--7--7--7--7-7-7----5----5h6-| 
-----------5--5--5---------|------------------7----7-----| 
                                                             
---------------------------------|-------------------------| 
---------------------------------|-------------------------| 
--7-7-7--7-7-7-7-5/7-7-7--5/7-7--|--3------3--------2-2-3--| 
---------------------------------|------------3--3---------| 
                                                           
----------------------------|----------------------------| 
----------------------------|----------------------------| 
--5--5-5-5--5--------4-4-5--|--7--7--7--7-7-7--7--7-7-7--| 
---------------5--5---------|----------------------------| 
                                                                 
-----------------------------------|---------------------------| 
-----------------------------------|---------------------------| 
--7-7-7-7--7-7-7--7-7-7-7-7-7-7-7\-|--3----3--3---------2-2-3--| 
-----------------------------------|-------------3-3-3---------| 
                                                           
----------------------------|-----------------------------| 
----------------------------|-----------------------------| 
--5----5-5-5/7-------4-4-5--|--7--7--7--7-7-7----5----5-6-| 
---------------5--5---------|------------------7----7-----| 
                                                                
-----------------------------------|--------------------------| 
-----------------------------------|--------------------------| 
--5/7-7-7--5/7-7-7--5/7-7-7--7--7\-|--3--------------2--3--4--| 
-----------------------------------|-----0--1--2--3-----------| 
                                                           
--------------------------|------------------------------| 
--------------------------|------------------------------| 
--5--------------4--5--6\-|--7--7-7-7---7-5/7---5-----5/-| 
-----2--3--4--5-----------|-------------------7-----7----| 
                                                             
--------------------------------|---------------------------| 
--------------------------------|---------------------------| 
--7-7-7--5/7-7--5/7-7-7--7-7-7\-|--3----3--3--------2-2-3-3-| 
--------------------------------|-------------3--3----------| 
                                                        
----------------------------|---------------------------| 
----------------------------|---------------------------| 
--5----5--5/7--------4-4-5/-|--7--7--7---7-7----5----5/-| 
--------------5--5-5--------|-----------------7----7----| 
                                                               
----------------------------------|--------------------------| 
----------------------------------|--------------------------| 
--7-7-7--5/7-7-7--5/7-7-7--5/7-7\-|--3--------------2--3--4--| 
----------------------------------|-----0--1--2--3-----------| 
 
                                                     
--------------------------|-------------------------| 
--------------------------|-------------------------| 
--5--------------4--5--6\-|--7----7----7----5----5/-| 
-----2--3--4--5-----------|---------------7----7----| 
                                                               
----------------------------------|--------------------------| 
----------------------------------|--------------------------| 
--7-7-7--5/7-7-7-7-5/7-7-7-7-7-7\-|--3--------------2--3--4--| 
----------------------------------|-----0--1--2--3-----------| 
                                                      
--------------------------|-------------------------| 
--------------------------|-------------------------| 
--5--------------4--5--6\-|--7----7----7----5----5/-| 
-----2--3--4--5-----------|---------------7----7----| 
 
                                                        
----------------------------------|-------------------|| 
----------------------------------|-------------------|| 
--7-7-7--5/7-7-7-7-5/7-7-7-7-7-7\-|--7----------------|| 
----------------------------------|-------------------||
less
plus
Add to Songbook Print Version How to play lesson Submit videolesson
Click the best TAGS for this song:
None of them
Contributor: jazzspic Correct

If you can not find the chords or tabs you want, look at our partner E-chords. If you are a premium member, you have total access to our video lessons.

If you find a wrong Bad To Me from O Rappa, click the correct button above.

login/signup
my songbooks
my recent views
my submits