O Rappa

O Que Sobrou Do Céu bass

O Rappa

Album:Lado B Lado A

Year:1999

tools Ultimate Tabs

Start AutoScroll Font Size Down Font Size Up

Find us on Facebook

chords
tabs
bass
ukulele keyboards
drums
flute
harmonica
guitar pro
video
Ultimate-Tabs

O Que Sobrou Do Céu

-------------------------------------------------------------------------------
                             O Que Sobrou do Céu - O Rappa
-------------------------------------------------------------------------------
Tabbed by: André Correa
E-mail: [email protected]

Tuning:B


    O la lá, O la lá,  êa                                             x4
G|---------------------------------|----------------------------------||
D|---------------------------------|----------------------------------||
A|---------------------------------|----------------------------------||
D|---13\1--1--1--0-1---------------|----13\1--1--1--0-1-4-------------||


    Faltou luz mas era dia...                                         x8
G|---------------------------------|----------------------------------||
D|---------------------------------|----------------------------------||
A|---------------------------------|----------------------------------||
D|---13\1--1--1--0-1---------------|----13\1--1--1--0-1-4-------------||


    Um chá pra curar esta azia....                                    x3
G|---------------------------------|----------------------------------||
D|---------------------------------|----------------------------------||
A|-------4-2-4-2-4-----------------|----------------------------------||
D|---1-1---------------------------|----6-4-6-4-6---------------------||


    Pra gente ver...                    Por entre os prédios e nós...
G|-----------------|----------------|-----------------|---------------||
D|-----------------|----------------|-----------------|---------------||
A|-----------------|----------------|-----------------|------1-1-4----||
D|---6-6666--6666--|-4-4441--111-44-|----6-6666--6666-|--4-4----------||


    Pra gente ver ...                   O que sobrou do céu        
G|-----------------|----------------|-----------------|---------------||
D|-----------------|----------------|-----------------|---------------||
A|-----------------|----------------|-----------------|------1-1-4----||
D|---1-1111--1111--|-4-4441--111-44-|----6-6666--6666-|--4-4----------||


    O que sobrou do céu éu éu éu éu.......                            x4
G|---------------------------------|----------------------------------||
D|---------------------------------|----4h6-6666--4h6-6666-4h6-66-----||
A|---------------------------------|----------------------------------||
D|---4h6-6666--4h6-6666-4h6-66-----|----------------------------------||


| /  slide up
| \  slide down
| h  hammer-on
| p  pull-off
| ~  vibrato
| +  harmonic
| x  Mute note
===============================================================================
less
plus
Add to Songbook Print Version How to play lesson Submit videolesson
Click the best TAGS for this song:
None of them
Contributor: ellebroi Correct

If you can not find the chords or tabs you want, look at our partner E-chords. If you are a premium member, you have total access to our video lessons.

If you find a wrong Bad To Me from O Rappa, click the correct button above.

login/signup
my songbooks
my recent views
my submits