O Rappa

Tumulto bass

O Rappa

Album:Instinto Coletivo

Year:2001

tools Ultimate Tabs

Start AutoScroll Font Size Down Font Size Up

Find us on Facebook

chords
tabs
bass
ukulele keyboards
drums
flute
harmonica
guitar pro
video
Ultimate-Tabs

Tumulto

Afinação (E) 
Riff 1 
G|---------------------------------------------------------------- 
D|---------------------------------------------------------------- 
A|-5555-3--5555-3--3333------------------------------------------- 
E|-----------------------5--5555-0-3333--------------------------- 

Riff 2 
G|---------------------------------------------------------------- 
D|---------------------------------------------------------------- 
A|-3333-1--3333-0------------------------------------------------- 
E|---------------------------------------------------------------- 
 
Ponte 
G|---------------------------------------------------------------- 
D|---------------------------------------------------------------- 
A|-2323--5-32323-(0)---------------------------------------------- 
E|----------------------------------------------------------------  
less
plus
Add to Songbook Print Version How to play lesson Submit videolesson
Click the best TAGS for this song:
None of them
Contributor: tomesile Correct

If you can not find the chords or tabs you want, look at our partner E-chords. If you are a premium member, you have total access to our video lessons.

If you find a wrong Bad To Me from O Rappa, click the correct button above.

login/signup
my songbooks
my recent views
my submits