S Oasis

Bring It On Down tab

Oasis

Album:Definitely Maybe

Year:1994

tools Ultimate Tabs

Start AutoScroll Font Size Down Font Size Up

Find us on Facebook

Ultimate-Tabs

Bring It On Down

e|-2---2---o---2---2---o---2---2---o---2---2---o---2---5---3---o---2---5---3---o-|
B|-3---3---2---3---3---2---3---3---2---3---3---2---3---5---3---o---3---5---3---o-|
G|-4---2---2---4---2---2---4---2---2---4---2---2---4---7---4---o---4---7---4---o-|
D|-4---o---2---4---o---2---4---o---2---4---o---2---4---7---5---2---4---7---5---2-|
A|-2---x---o---2---x---x---2---x---x---2---x---x---2---5---5---2---2---5---5---2-|
E|-2---x---x---2---x---x---2---x---x---2---x---x---2---5---3---o---2---5---3---o-|

e|-----------------------7---------7---------------------------7-----------------|
B|-------------------------------------------------------------------------------|
G|----7-7-7b9-9-7-9-7-7b9-9-7-9-7b9-9-7-9-7---7-7-7b9-9-7-9-7b9-9-7-9-7-9s11-11--|
D|-7h9-9-9---------------------------------9-9-9-9-------------------------------|
A|-------------------------------------------------------------------------------|
E|-------------------------------------------------------------------------------|

e|-------------------------------------------------------------------------------|
B|--10-12-12-12-12-12-12--12-10---10-9---7b9-------------------------------------|
G|11--------------------11---11-11---9-9-7--7-9-9-9------------------------------|
D|-------------------------------------------------------------------------------|
A|-------------------------------------------------------------------------------|
E|-------------------------------------------------------------------------------|

e|-2---5---7---5---2-------------------------------------------------------------|
B|-3---5---7---5---3-------------------------------------------------------------|
G|-4---7---9---7---4-------------------------------------------------------------|
D|-4---7---9---7---4-------------------------------------------------------------|
A|-2---5---7---5---2-------------------------------------------------------------|
E|-2---5---7---5---2-------------------------------------------------------------|
less
plus
Add to Songbook Print Version How to play lesson Submit videolesson
Click the best TAGS for this song:
None of them
Contributor: jonkJack Correct

If you can not find the chords or tabs you want, look at our partner E-chords. If you are a premium member, you have total access to our video lessons.

If you find a wrong Bad To Me from Oasis, click the correct button above.

login/signup
my songbooks
my recent views
my submits